Oops, an error
Loading. Please wait.

Rock Dealer Tab

22 views 1 this week
no commentswrite comment
1 2 3 4 5
3 more votes to show rating
add to favorites
launch autoscroll
font size
0
reset
how to read this tab
guitar tuner
×
Best way to learn
"Rock Dealer"
Autoscroll
slow
fast
+/-
esc
set tempo
stop
Intro:


e-------------------------------------------------------------
b-------------------------------------------------------------
g--4--4-----4--4--4---------------4--4-----4--4--4---------7--
d--4--4-----4--4--4-----5----2----4--4-----4--4--4-----5---7--
a--2--2--0--2--2--2--0--5----2----2--2--0--2--2--2--0--5---5--
E-----------------------3----0-------------------------3------


e-------------------------------------------------------------
b-------------------------------------------------------------
g--4--4-----4--4--4---------------4--4-----4--4--4------------
d--4--4-----4--4--4-----5----2----4--4-----4--4--4-----5---7--
a--2--2--0--2--2--2--0--5----2----2--2--0--2--2--2--0--5---7--
E-----------------------3----0-------------------------3---5--


Engancha hasta que comienza el tema con:

e-------------------------------------------------------------
b-------------------------------------------------------------
g--0h2p0h2p0h2p0h2p0h2......----------------------------------
d-------------------------------------------------------------
a-------------------------------------------------------------
E-------------------------------------------------------------


Riff 1:


e-------------------------------------------------------------
b---------------------------------------------10--------------
g---9b---9-7-9--9br-7------9b---9-7-9--9br-7------------------
d----------------------9--------------------------------------
a-------------------------------------------------------------
E-------------------------------------------------------------


e-------------------------------------------------------------
b---------------------------------------------10-10-10--------
g---9b---9-7-9--9br-7------9b---9-7-9--9br-7------------------
d----------------------9--------------------------------------
a-------------------------------------------------------------
E-------------------------------------------------------------


B5
Son las 2 ...
B5
son las 3...
G5
nose que necesito
E5                    B5
nose donde deje lo de hoy
B5
lo de ayer
G5
recuedos que perforan
E5
recuerdos de ese amor

Riff 1


Son las 3..
son las 6...
en algua en la persiana
y la tinta sin alianza
y vos?
que decis?
sueños de hedonista
botellas de placer...

Estribillo sobre Riff 2 x2


Rock dealer suena mas fuerte
pega mas fuerte
rock dealer suena mas fuertee
dame un poco mas...
dame un poco mas...

Riff 2:

e----------------------------------
b----------------------------------
g--2----5--2---5--7----------------
d--2----5--2---5--7------3---------
a--0----3--0---3--5------3---------
E------------------------1---------

El ultimo "dame un poco mas" lo hace sobre:


e--------------
b--------------
g--2----5--2---   Hasta comienzo del solo
d--2----5--2---
a--0----3--0---
E--------------


Riff 1 y Solo sobre base del tema (B5, G5, E5)

B5
Son las 6...
B5
son las 10...
G5
cenizas de un cigarro
E5
cenizas de dolor
B5        B5
berretin de tu amor
G5
el mamadero cierra
E5
el sol toka la puerta

Estribillo sobre Riff 2 X2

Rock dealer suena mas fuerte
pega mas fuerte
rock dealer suena mas fuertee
dame un poco mas...
dame un poco mas


Termina con:


e-------------------------------------------
b-------------------------------------------
g-----------5-------------------------------
d----3s5--7----7--5h7.....------------------
a-------------------------------------------
E-------------------------------------------


- h: hammer on o ligado ascendente.
- p: pull off o ligado descendente.
- b: bending, o estirar la cuerda.
- r: release o bajar la cuerda (que fue antes estirada).
- brp: bending + release + pull off.
- *: armónico.
- s: slide o deslizar.
- .....: dejar sonando


Temazo de La Mocosa, creo que esta bien, les debo el solo. Saludos
Suggest correction
Give kudos to tab author, rate the tab!
1 2 3 4 5
comments
print report bad tab
guest
You may want to rate the tab now too:
select rating
Wanna post a correction for this tab? Suggest correction