Oops, an error
Loading. Please wait.

Rutina Tab

6 views 1 this week
no commentswrite comment
1 2 3 4 5
3 more votes to show rating
add to favorites
×
Save as Personal and add changes to this tab that will be seen only by you. Learn more ›
×
You can save this tab as Personal to edit and correct it or add notes. All changes will be seen only by you. Learn more »
save as personal
new!
launch autoscroll
font size
0
reset
how to read this tab
guitar tuner
Autoscroll
slow
fast
+/-
esc
set tempo
stop
Nota:
/     : slide
p     :pull of
h     :hamer on
()    :levantar a cuerda según lo indique el N° que esta dentro del
       paréntesis,. Si aparecen dos paréntesis seguidos con el mismo N°
       quiere decir que hay que tocar esa cuerda levantada dos veces sin
       bajarla.
Ej:  1)---14(16)(16)--:  aca hay que levantar,el traste 14 hasta 
el N° 16 pero hay que tocarla dos veces, sin bajar la cuerda.
**********************************************************************

Intro:
G5/A5 - G5/A5 - G5/A5

1)-------------------|---|-14-14--14---------------|
2)-------------------|---|-14-14--14p12------------|
3)-------------------|---|-------------14-14(12)---|
4)-------------------|x3-|-------------------------|
5)-6/7---9--7--9-----|---|-------------------------|
6)-4/5---5--3--5-----|---|-------------------------|

A5
El sol se está asomando, un nuevo día COMIENZA
D5
se hace difícil volver a empezar.
A5
Ya todo es rutina que envuelve tus sentidos
D5
se hace difícil tratar de escapar.


E5                             D5
Y todo lo que queda es seguir adelante
E5                                     D5
no se encuentran salidas por ninguna parte
E5                                A5
siguen pasando horas y yo estoy peor.


A5
Se encargan de meterte el dedo en el culo
D5
tus sobras quedan para el corroniero.
A5
Acá nada es importante si no hay guita en el medio
D5
como siempre el esfuerzo fue en vano.


Y que será el futuro, no quiero pensarlo
saldremos de este pozo, quiero imaginarlo
si no te consumieron dentro de poco lo aran.

SOLO DE SAXO:
base A5  -  D5  -  A5  -  E5  -  D5  -  A5

PUNTEO

1)-15(17)(17)--------|--------------|------------------------|-----------
2)-14(16)----12------|--------------|------------------------|-----------
3)--------------14...|-14-12---14...|-14(12)p12--------------|12-13/14...
4)-------------------|------14------|-----------14-12---12-14|-----------
5)-------------------|--------------|-----------------14-----|-----------
6)-------------------|--------------|------------------------|-----------

1)-------------------------------|-------------------------------|
2)-------------------------------|----------------------12-14-12-|
3)-14-14p12----------------------|---12...-14(16)-12-14----------|
4)---------14-12-------12-14...--|-14----------------------------|
5)---------------14-12-----------|-------------------------------|
6)-------------------------------|-------------------------------|

1)-------15----15-|--------------------|---------------15----15-|
2)-14(16)--(16)---|14(16)-14p12--------|12-14-12-14(16)--(16)---|
3)----------------|------------12-14...|------------------------|
4)----------------|--------------------|------------------------|
5)----------------|--------------------|------------------------|
6)----------------|--------------------|------------------------|

1)--------------------|-------------------------------|---------------|
2)-14(16)-14p12-------|-12-14-12--14(16)(16)(16)(16)--|---------------|
3)--------------12-14-|-------------------------------|hace un riff el|
4)--------------------|-------------------------------|-----bajo------|
5)--------------------|-------------------------------|---------------|
6)--------------------|-------------------------------|---------------|

1)-15-15----15--------------------------|
2)-14-14----14---14(16)-14p12-----------|
3)---------------------------12-14...---|
4)--------------------------------------|
5)--------------------------------------|
6)--------------------------------------|


A5
La luna esta brillando, el día ha terminado
mi cuerpo pide la cama gritando.
En la tele pasan siempre las mismas caripelas
Mirta, Susana, Gerardo y Marcelo.


E5                                    D5
Y el doctor me dice 'tomá la pastilla'
E5                              D5
yo preferiría armar las valijas,
E5                                       D5
y pasar algunos años dentro del hospital.

    A5
1)-15(17)...---------------
2)-14(16)...-14p12---------
3)----------------14(13)---
4)-------------------------
5)-------------------------
6)-------------------------


E5: X 7 9 X X X
A5: 5 7 X X X X
D5: X 5 7 X X X
***********************************************************************
BUENO ACA ESTA costo pero salió, cualquier duda o correcion hacerla a 
federnr_la25@
Aguante la mocosa loco!!!!!!!
Suggest correction
Give kudos to tab author, rate the tab!
1 2 3 4 5
comments
print report bad tab
guest
Wanna post a correction for this tab? Suggest correction