Oops, an error
Loading. Please wait.

Sucio Recuerdo Tab

22 views 1 this week
no commentswrite comment
1 2 3 4 5
3 more votes to show rating
add to favorites
×
Save as Personal and add changes to this tab that will be seen only by you. Learn more ›
×
You can save this tab as Personal to edit and correct it or add notes. All changes will be seen only by you. Learn more »
save as personal
new!
launch autoscroll
font size
0
reset
how to read this tab
guitar tuner
Autoscroll
slow
fast
+/-
esc
set tempo
stop
Nota:
()  : es estirar la cuerda hasta que lo indique el numero q esta dentro
      del paréntesis.
()(): Si aparece dos paréntesis seguidos o más con el mismo N° esto
      quiere decir que hay que tocarla dos veces la cuerda levantada sin
      bajarla

      Ej. 1)-12(13)(13)--|  aca hay que levantar la cuerda N°12 hasta de
      la 1° cuerda y llevarla al traste N° 13 pero se toca 2 veces la
      cuerda levantarla (sin bajarla)
... :hacer una pausa
/   :arrastrar la cuerda (seria hacer slide)
s   : slide
p   : pull off (especie de ligado pero de forma descendente, del puente 
      hacia el clavijero)
h   : hamer on ( ligado ascendente), del clavijero hacia el puente)
(pm): pull off, quiere decir que hay que poner la palma de la mano en el
      puente para apagar el sonido
******************************************************************************

INTRO: (lo hace a lo largo de todo el tema )

       Dm    Dm             Am       C
1)-1-|-1-1|-1-1--1--1-1--1-|----|----------|
2)---|-3-3|-3-3-----3-3----|-1--|-1-1-1-1--|
3)---|-2-2|-2-2-----2-2----|-2--|----------|
4)-0-|----|------0-------0-|-2--|-2-2-2-2--|
5)---|----|----------------|----|-3-3-3-3--|
6)---|----|----------------|----|----------|

PUNTEO INTRO

1)------------------------------------8---------------|
2)-----------------------6-8-8(9)...----8....--8-6----|
3)-5/7...-5/7-7...---5/7----------------------------7-|
4)----------------------------------------------------|
5)----------------------------------------------------|
6)----------------------------------------------------|

Dm
Caminos sin sol
         Am        C
todo es una perdición
Dm
rutas sin alcohol
Am        C
ya no queda mas rencor

Dm
Tus ojos negros
Am        C
brillan en la oscuridad
Dm                   Am
de un recuerdo viejo
C                     (punteo de [ch]A[/ch] intro) (de base: Dm Am C  X2)
que ya muy lejos esta

PUNTEO 1

1)-----------------9---------|-------------------|------------|---------
2)---------9(10)...-9-10-----|----7-9(10)-7------|------------|---------
3)7-10-7-10-------------10...|7-9----------7-9...|9--10p9p7...|9p7--7...
4)---------------------------|-------------------|------------|----9----
5)---------------------------|-------------------|------------|---------
6)---------------------------|-------------------|------------|---------

1)---------------------------------8------8------8-------------|
2)------7-9(10)p7------------9(10)---(10)---(10)---(10)--------|
3)-7-10------------7-10-7-------------------------------7...---|
4)-------------------------------------------------------------|
5)-------------------------------------------------------------|
6)-------------------------------------------------------------|

(-)                                                   (-)   F5   (+)
Pero que mas da                                     1)----|----|----|
F5                   (-)                            2)----|----|----|
voy a divertirme igual                              3)----|----|----|
F5           (-)                                    4)----|-10-|-12-|
y dejar atrás                                       5)-12-|-8--|-10-|
[+]                      [(-) [+] F5 (-)]x2         6)-10-|----|----|
las cosas que ya no están


Oí mi corazón,
quiere sexo y rock and roll
Para que morir?
queda mucho por vivir.

PUNTEO 2

1)-------------------------------------------------8...|---------------
2)-----------------------6-8-8(9)p6---6-8-8(9)---8-----|6-8-8(9)p6-----
3)-5/7...-5/7-7...---5/7------------7------------------|-----------7...
4)-----------------------------------------------------|---------------
5)-----------------------------------------------------|---------------
6)-----------------------------------------------------|---------------

1)----------------|-----------------------------|------------|----------|
2)-6-8-8(9)p6-----|-----------------------------|------------|----------|
3)------------7...|-7-7-7--7p5...--5--5----7(9)-|-7---7-5...-|7p5...-7--|
4)----------------|---------------7-7-----------|---5--------|----------|
5)----------------|-----------------------------|------------|----------|
6)----------------|-----------------------------|------------|----------|

1)------------------------------8...-------------|----|------------------
2)-----6-8-8(9)p6---6-8-8(9)--8------8p6---------|----|------------------
3)-5/7-----------7-----------------------7....---|----|------------------
4)-----------------------------------------------|----|------------------
5)-----------------------------------------------|----|-12-12-12-12-(pm)-
6)-----------------------------------------------|----|-10-12-12-12-(pm)-

1)--------------------------------------------------
2)--------------------------------------------------
3)--------------------------------------------------
4)12-12-12-12(pm)-10-10-10-10(pm)-------------------
5)10-10-10-10(pm)--8--8--8--8(pm)--12-12-12-12(pm)--
6)---------------------------------10-10-10-10(pm)--


Pero que mas da
Voy  a divertirme igual
Y dejar atrás
Las cosas que ya no estan

Oí mi corazón,
quiere sexo y rock and roll
quiere sexo y rock and roll
quiere sexo y rock and roll
                          punteo 3
quiere sexo y rock and rooLLoooooooooll oh ooooooooooooh

PUNTEO 3

1)-----------------------------------------------8...------------------|
2)----------------------6-8-8(9)p6---6-8-8(9)--8------8p6--------------|
3)-5/7...-5/7-7...--5/7------------7----------------------7--5---5-7...|
4)-------------------------------------------------------------7-------|
5)---------------------------------------------------------------------|
6)---------------------------------------------------------------------|

1)----------------------|
2)----------------------|
3)--7p5h7p5h7p5h7...----|
4)----------------------|
5)----------------------|
6)----------------------|

************************************************************************
bueno aca.. esta? costo pero salio.. .cualquier duda.. o corrección 
hacerla a federnr_la25@
bueno nada mas,,,, AGUANTE LA MOCOSA!!!! Y EL RNR

De paso paso el chivo... busco gente para formar una banda de Rnr yo soy de ramos mejia..
bueno... ya saben el mail cualquier cosa..me escriben
[ch]B[/ch] estan interesados...
Suggest correction
Give kudos to tab author, rate the tab!
1 2 3 4 5
comments
print report bad tab
guest
Wanna post a correction for this tab? Suggest correction