Oops, an error
Loading. Please wait.

Sucios Recuerdos Tab

version 1
version 1

Whole song

13 views 1 this week
no commentswrite comment
1 2 3 4 5
3 more votes to show rating
add to favorites
launch autoscroll
font size
0
reset
how to read this tab
guitar tuner
Autoscroll
slow
fast
+/-
esc
set tempo
stop
Help us to improve Ultimate-Guitar.com Take our survey!
×
Bueno acá les paso el tema con los acordes y el punteo


Intro:  Dm    Bb    F    C        X2


Dm  Bb         F
Caminos sin sol
        C           Dm
todo es una perdición
   Bb          F
rutas sin alcohol
        C           Dm
ya no queda mas rencor

Intro

Tus ojos negros
brillan en la oscuridad
de un recuerdo viejo
que ya muy lejos esta

Solo:
e--------------------------8-----------------------------------------------------------------
b------6-----6-8?(11)------8?9--8--6-----6--8-8?10-8?10--8--6--8--6---------6--8--10---------
g---7-----7--------------------------------7----------------------------------------7--7---7-
D--------------------------------------------------------------------------------------------
A--------------------------------------------------------------------------------------------
E--------------------------------------------------------------------------------------------

e--------------------------------------------------7-----------------------------------------
b-----6--8-8?(10)--8--6--8--6--6-8?(10)------------------------------------------------------
g--7-----------------------------------------------------------------------------------------
D--------------------------------------------------------------------------------------------
A--------------------------------------------------------------------------------------------
E--------------------------------------------------------------------------------------------

Dm     Bb      F
Pero que mas da
        C            Dm
voy a divertirme igual
    Bb      F
y dejar atrás
       C                Dm
las cosas que ya no están

Oí mi corazón,
quiere sexo y rock and roll
Para que morir?
queda mucho por vivir.

Dm5    Bb5    F5    C5        X2
Suggest correction
Give kudos to tab author, rate the tab!
1 2 3 4 5
comments
print report bad tab
guest
You may want to rate the tab now too:
select rating
Wanna post a correction for this tab? Suggest correction