Oops, an error
Loading. Please wait.

Sucios Recuerdos Tab

version 2
version 2

Whole song

13 views 1 this week
no commentswrite comment
1 2 3 4 5
3 more votes to show rating
add to favorites
launch autoscroll
font size
0
reset
how to read this tab
guitar tuner
Autoscroll
slow
fast
+/-
esc
set tempo
stop
Help us to improve Ultimate-Guitar.com Take our survey!
×
bueno aca les dejo este punteo de la mocosa q esta muy bueno
correji un par de errores q tenia la transcripcion anterior..
cualquier duda manden un email: fran082@


(esto hace el piano)
    [ch]Dm       [ch]A#[/ch]       FA[/ch]          [ch]C[/ch]

e|---5--5--5---6--6--6---8---8---8---8--8--8-------------|
b|----6--6--6---6--6--6---10--10--10--8--8--8------------|
g|-----7--7------7--7--7---10--10------9--9--------------|
d|-------------------------------------------------------|
a|-------------------------------------------------------|
e|-------------------------------------------------------|

Solo

v: estirar la cuerda
m: mantener la nota
s: deslisar

1:06
               [ch]Dm    [ch]A#[/ch]            FA[/ch]       [ch]C[/ch]
e-----------------8--------------------------------------------
b-------6---6--8v---8vs6m------6--8--8v--8s6--5m---------------
g----5s7---7-----------------7---------------------------------
d--------------------------------------------------------------
a--------------------------------------------------------------
e--------------------------------------------------------------
            [ch]Dm           [ch]A#[/ch]              FA[/ch]
e--------------------------------------------------------------
b---5--5s6s5-----------------------------8--8v-----------8-----
g-------------7--7--7--5---5s7m----7--10-------10--7--10-------
d------------------------7-------------------------------------
a--------------------------------------------------------------
e--------------------------------------------------------------

   [ch]C[/ch]
e----8---------------------------------------------------------
b--8v--8s6-----------------------------------------------------
g---------7----------------------------------------------------
d--------------------------------------------------------------
a--------------------------------------------------------------
e--------------------------------------------------------------


Acordes

[ch]Dm       ([ch]A#[/ch]   o asi)     FA[/ch]        [ch]C[/ch]
--5--     --6--  --1--      --1--     --3--
--6--     --6--  --3--      --1--     --5--
--7--     --7--  --3--      --2--     --5--
--7--     --8--  --3--      --3--     --5--
--5--     --8--  --1--      --3--     --3--
--*--     --6--  --*--      --1--     --*--
Suggest correction
Give kudos to tab author, rate the tab!
1 2 3 4 5
comments
print report bad tab
guest
You may want to rate the tab now too:
select rating
Wanna post a correction for this tab? Suggest correction