Oops, an error
Loading. Please wait.

Tan Lejos Chords

18 views 1 this week
no commentswrite comment
1 2 3 4 5
3 more votes to show rating
add to favorites
launch autoscroll
font size
0
reset
transpose
0
reset
display chords
guitar tuner
×
Best way to learn
"Tan Lejos"
Autoscroll
slow
fast
+/-
esc
set tempo
stop
hola gente.. bueno la trancripcion anterior estaban bien los
acordes pero estaban en otro tono.. estos son los tonos que
usa en el tema la mocosa... fijense bien que es facil.


Acordes:

A#: 6.8.8.7.6.6

D#: *.6.8.8.8.6.

Fa: 5.8.7.5.6.5 / 1.3.3.2.1.1 /*.8.10.10.10.8

Cm: 3.3.5.5.4.3


A#            F                D#
  Tirar y aflojar la soga no me hace bien
A#           F          D#
  Que feo es conformarse con tan poco

  Las dudas y los errores se siguen sumando

  El miedo es el que no te deja ver


1)--13--11-11s10--8-8s6-6------6-----------
2)-------------------------6-8--8----------
3)------------------------7----------------
4)-----------------------------------------


1)--13--11-11s10--8-8s6-6--8v--------------
2)-----------------------------------------
3)-----------------------------------------
4)-----------------------------------------


1)--13--11-11s10--8-8s6-6---5s6--5s6-------
2)-----------------------------------------
3)-----------------------------------------
4)-----------------------------------------


1)--13--11-11s10-8-8s6---------------------
2)-----------------------------------------
3)-----------------------------------------
4)-----------------------------------------

A#        F              D#
  Acostumbrado al dolor sigo cantando

 Las voces en mi almohada siguen estando

 Nunca habia sentido este vacio

 Y el capricho de no querer abandonar

Cm                       F
  Estás tan cerca y tan lejos a la vez
Cm                     F
  De ese anhelo inalcanzable

           A#                     F
 Como explicarle a Dios cuando me muera
      D#                       A#  F                D#
Un tesoro de tanta magnitud del cual    no pude ser dueño


 Como explicarle a Dios cuando me muera

Un tesoro de tanta magnitud del cual no pude ser dueño


           [punteo]

Cm                       F
  Estás tan cerca y tan lejos a la vez
Cm                     F
  De ese anhelo inalcanzable

           A#                     F
 Como explicarle a Dios cuando me muera
      D#                       A#  F                D#
Un tesoro de tanta magnitud del cual    no pude ser dueño

           A#                     F
 Como explicarle a Dios cuando me muera
      D#                      A#  F                D#
Un tesoro de tanta magnitud del cual    no pude ser dueño


No se olviden de calificar.. gracias!
Suggest correction
Give kudos to tab author, rate the tab!
1 2 3 4 5
comments
print report bad tab
guest
You may want to rate the tab now too:
select rating
Wanna post a correction for this tab? Suggest correction