Oops, an error
Loading. Please wait.

Truco Absurdo Tab

8 views 3 this week
no commentswrite comment
1 2 3 4 5
3 more votes to show rating
add to favorites
launch autoscroll
font size
0
reset
how to read this tab
guitar tuner
Autoscroll
slow
fast
+/-
esc
set tempo
stop
Help us to improve Ultimate-Guitar.com Take our survey!
×
Am - F - Em - F - Am
|----------------------------------------|
|----------------------------------------|
|-0-2-4-5-4-2h0h(2v)---0-2-4-5-4-2h0-----|
|------------------------------------(3v)|
|----------------------------------------|
|----------------------------------------|


|----------------------|
|----------------------|
|----------------------|
|-3---3-3-3/5-3-(2v)---|
|----------------------|
|----------------------|


|-------------------------------------|
|-------------------------------------|
|--0-2-4-5-4-2h0----------------------|
|--------------(3v)-3---3-3-3/5-3-(2v)|
|-------------------------------------|
|-------------------------------------|


|-------------------------|
|-------------------------|
|-0-2-4-5-4-2h0h(2v)------|
|-------------------------|
|-------------------------|
|-------------------------|


Am
La noche me volvio a ganar
F
mil pregunta sin contestar
Em                    Am
y ese miedo a no poder parar
Am
Siempre recurro al mismo truco
F
absurdo del que no quieras entrar
Em                    Am
entrar sin tener qeu resignar

G
descoronado vuelvo
D
siempre en el mismo asiento
C                           G
de ese bondi abrazado al sol

F
tratando de ganarle al sueño
Am
que golpea y me noquea
F                       Em
sin darme chances a otro sabor
(Am)
                 Am - F - Em - F - Am
|----------------------------------------|
|----------------------------------------|
|-0-2-4-5-4-2h0h(2v)---0-2-4-5-4-2h0-----|
|------------------------------------(3v)|
|----------------------------------------|
|----------------------------------------|


|----------------------|
|----------------------|
|----------------------|
|-3---3-3-3/5-3-(2v)---|
|----------------------|
|----------------------|


|------------------------|---------------------|
|----------------------------------------------|
|--0-2-4-5-4-2h0-------0-2-4-5-4-2h0h(2v)------|
|--------------(3v)-3--------------------------|
|----------------------------------------------|
|----------------------------------------------|


Am
Otra vuelta que termina
F
un poco roto y con lo que queda
Em                         Am
de mi alma resque rajada mal

Am
aturdido por ese gran bostezo
F
que te tira la ciudad
Em                  Am
cuando tiende a despertar

G
y de nuevo escucho
D
los aplausos de chofer
C                            G
como invitandome a bajar de ahi

F
sintiendo un peso extra en mi cuerpo
Am
que me nubla y me castiga
F                      Em
quemandome como un carbon
(Am)


|-0-0-0-0-0------|
|-1-1-1-1-1------|
|-2-2-2-2-2------|
|-2-2-2-2-2------|
|----------------|
|----------------|

                    Am - F - Em - F - Am
|--------------------------------------------------------------|
|--------------------------------------------------------------|
|-0-2-4-5-4-2h0h(2v)---0-2-4-5-4-2h0--------0-2-4-5-7-5-5h4----|
|------------------------------------(3v)----------------------|
|--------------------------------------------------------------|
|--------------------------------------------------------------|


|-----------------------------|
|--------------------------(5)|
|-4-5-7-5------------5-7-5----|
|---------5-5/(7)-5-7---------|
|-----------------------------|
|-----------------------------|


|8-7-7-5---------------8-10-10-10--8-----7-7-7-5-4-5-|
|--------5-5/(6v)--/10------10-10-10---8-8-8-8-6-5-6-|
|----------------------------------------------------|
|----------------------------------------------------|
|----------------------------------------------------|
|----------------------------------------------------|


G
descoronado vuelvo
D
siempre en el mismo asiento
C                           G
de ese bondi abrazado al sol

F
tratando de ganarle al sueño
Am
que golpea y me noquea
F                       Em
sin darme chances a otro sabor


|-------------------------|
|-------------------------|
|-0-2-4-5-4-2h0h(2v)------|
|--------------------2--7-|
|--------------------2--7-|
|--------------------0--5-|
Suggest correction
Give kudos to tab author, rate the tab!
1 2 3 4 5
comments
print report bad tab
guest
You may want to rate the tab now too:
select rating
Wanna post a correction for this tab? Suggest correction