Oops, an error
Loading. Please wait.

Tumbero Chords

1 view 1 this week
no commentswrite comment
1 2 3 4 5
3 more votes to show rating
add to favorites
launch autoscroll
font size
0
reset
transpose
0
reset
display chords
guitar tuner
×
Best way to learn
"Tumbero"
Autoscroll
slow
fast
+/-
esc
set tempo
stop
TUMBERO

Intro

1-----7/9-7-----------7/9-7----7-9-7
2----------10-7-10----------10-------10


A                    G D A                 G
siento que no tengo aliento y ahora no puedo volver atras
A                       G  D A             G
cuando el cielo era estrellado la luna se volvio a escapar
REpite intro
A                    G D/DO A                     G
Siempre fui de dar consejos que conmigo no funcionaran
A                    G D/DO A                 G
me dijeron que en la vida todo vuelve y hoy yo tengo que pagar


D                A                   G
sentis correr el frio por tus venas abrazando soledad viendo
A
las horas pasar
D          A                      G
escuchas la lluvia desde adentro añorandola tocar
A
y respirar libertad


APEGIO
1--------2-5-2    1-------2-5-2         1-------2-5-2----2-5-2
2-------------    2------------         2---------------------
3------------- x2 3------------  x2     3---------------------
4-----0-------    4------------         4---------------------
5-------------    5-----2------         5-----3--------3--------2
6-------------    6------------         6---------------------
Solo


A                          G D/DO A                  G
La experiencia me hace mas fuerte pero el diablo siempre cerca
esta
A                   G D/DO A
no pierda el tiempo conmigo todo saben que yo no hago el mal


D                A                   G                   A
sentis correr el frio por tus venas abrazando soledad viendo las
horas pasar
D          A                      G
escuchas la lluvia desde adentro añorandola tocar y respirar
A
libertad


RE/DO (RE CON BAJO EN DO)

1----------------
2----------------
3------2-2---2---
4------0-0---0---
5----------3---3-
6----------------


Despues subo el solo espero que puedan entender los riff

"en rosario yo naci yo soy pibe de barrio y de barril"
Suggest correction
Give kudos to tab author, rate the tab!
1 2 3 4 5
comments
print report bad tab
guest
You may want to rate the tab now too:
select rating
Wanna post a correction for this tab? Suggest correction