Oops, an error
Loading. Please wait.

Tumbero Tab

13 views 1 this week
no commentswrite comment
1 2 3 4 5
3 more votes to show rating
add to favorites
launch autoscroll
font size
0
reset
how to read this tab
guitar tuner
×
Best way to learn
"Tumbero"
Autoscroll
slow
fast
+/-
esc
set tempo
stop
(A-G-D)

|-7br-7h5--5---7br-7h5--7--9-7-5--|
|--------7------------7-----------|
|---------------------------------|
|---------------------------------|
|---------------------------------|
|---------------------------------|


------------------------------------------------

A               G        D
Siento que no tengo aliento
A                   G
y ahora no puedo volver atras
A               G        D
cuando el cielo era estrellado
A                   G
la luna se volvio a escapar

-------------------------------------------------
             (A-G-D)

|-7br-7h5--5---7br-7h5--7--9-7-5--|
|--------7------------7-----------|
|---------------------------------|
|---------------------------------|
|---------------------------------|
|---------------------------------|

--------------------------------------------------

A               G        D
Siempre fui de dar consejos
A                   G
que conmigo no funcionaran
A               G        D
me dijeron que la vida
A               G
todo vuelve y hoy yo tengo que pagar


--------------------------------------------------
D                            A
sentis correr el frio por tus venas
G
abrazando soledad
A
viendo las horas pasar

D                            A
escuchar la lluvia desde adentro
G
añorandola tocar
A
y respirar libertad


---------------------------------------------------

D-B-C-B

|---------------12--------------------|
|-------10-(12b)---12-12h10---10-10v--|
|-9--11---------------------9---------|
|-------------------------------------|
|-------------------------------------|
|-------------------------------------|


|--9-10-12-10-9-10v--12-10-9-10---/14-14-14-12-10-12-|
|----------------------------------------------------|
|----------------------------------------------------|
|----------------------------------------------------|
|----------------------------------------------------|
|----------------------------------------------------|


|--------17----17b--17b-17b-17b-17b-17h15----15-15-|
|-----19----19----------------------------17-------|
|-/18----------------------------------------------|
|--------------------------------------------------|
|--------------------------------------------------|
|--------------------------------------------------|


|---17-15--------------------|
|---------17--17h15---15-15--|
|-------------------16-------|
|----------------------------|
|----------------------------|
|----------------------------|


|-------------------------------------------|
|-----------------------17-171h15h17h15-17/-|
|-19-19h18h19h18-19/------------------------|
|-------------------------------------------|
|-------------------------------------------|
|-------------------------------------------|


|-------17---17-19br-19br-19h17----17-17b--|
|---19b----19-------------------19---------|
|------------------------------------------|
|------------------------------------------|
|------------------------------------------|
|------------------------------------------|

-------------------------------------------------

A               G        D
la experiencia me hace mas fuerte
A                   G
pero el diablo siempre cerca esta
A               G        D
no pierdan  tiempo conmigo
A                   G-F#-G-F#-G-
todos saben que yo no hago el mal

---------------------------------------------------

D                            A
sentis correr el frio por tus venas
G
abrazando soledad
A
viendo las horas pasar

D                            A
escuchar la lluvia desde adentro
G
añorandola tocar
A
y respirar libertad

----------------------------------------------------
D-A-G-A

aahAHahAHahHAHAhHAHHAhahA
|------------------------------------------|
|-14-14-14-15-14-12-10-10/14-14-12-10-/14--|
|------------------------------------------|
|------------------------------------------|
|------------------------------------------|
|------------------------------------------|
Suggest correction
Give kudos to tab author, rate the tab!
1 2 3 4 5
comments
print report bad tab
guest
You may want to rate the tab now too:
select rating
Wanna post a correction for this tab? Suggest correction