Oops, an error
Loading. Please wait.

Un Estilo De Vida Tab

version 1
version 1

Whole song

9 views 1 this week
no commentswrite comment
1 2 3 4 5
3 more votes to show rating
add to favorites
launch autoscroll
font size
0
reset
how to read this tab
guitar tuner
×
Best way to learn
"Un Estilo De Vida"
Autoscroll
slow
fast
+/-
esc
set tempo
stop
Nota:
()  : es estirar la cuerda hasta que lo indique el numero q esta dentro
      del paréntesis.
()(): Si aparece dos paréntesis seguidos o más con el mismo N° esto
      quiere decir que hay que tocarla dos veces la cuerda levantada sin
      bajarla

      Ej. 1)-12(13)(13)--|  aca hay que levantar la cuerda N°12 hasta de
      la 1° cuerda y llevarla al traste N° 13 pero se toca 2 veces la
      cuerda levantarla (sin bajarla)
... :hacer una pausa
/   :arrastrar la cuerda (seria hacer slide)
s   : slide
p   : pull off (especie de ligado pero de forma descendente, del puente hacia el clavijero)
h   : hamer on ( ligado ascendente), del clavijero hacia el puente)

***********************************************************************

INTRO:( hacer intro dos vececes )
Base para la intro:  B5   E5  [+]  B5

1)----------------------|------------------------|----------------------|
2)----------------------|------------------------|----------------------|
3)----7-11(12)-10-7-----|-----7-11(12)-10-7-9...-|---7-11(12)-10-9-11...|
4)7h9---------------9...|-7h9--------------------|7h9-------------------|
5)----------------------|------------------------|----------------------|
6)----------------------|------------------------|----------------------|

                                    RIFF 1
1)-------------------------|     1)-10-10--7---|
2)-------------------------|     2)--9--9--7---|
3)------7-11(12)-10-7------|     3)------------|
4)-7h9----------------9...-|     4)------------|
5)-------------------------|     5)------------|
6)-------------------------|     6)------------|

RIFF 1 B5                             E5
       Estoy solo y tirado en el sillón                   [+]   B5  E5
      (+)                                  B5          1)----|----|----|
      necesito escuchar un buen rock and roll          2)----|----|----|
      B5                                    E5         3)----|----|----|
      esos acordes están sonando en mi mente           4)-11-|----|-9--|
      (+)                                  B5          5)--9-|-9--|-7--|
      su lengua está tatuada en mi corazón.            6)----|-7--|----|


(+)                       B5
Ojos celestes que me miran y después
(+)                                B5
solo queda apretar el botón.

PUNTEO:

1)------------------|----------------------|------------------------|
2)------------------|----------------------|------------------------|
3)-9---7------------|----7-11(12)-10-7-----|-----7-11(12)-10-7-9...-|
4)-------9-7---7-9--|7h9---------------9...|-7h9--------------------|
5)-----------9------|----------------------|------------------------|
6)------------------|----------------------|------------------------|

1)----------------------|-------------------------|-----|-----------|
2)----------------------|-------------------------|-----|-10-7------|
3)---7-11(12)-10-9-11...|------7-11(12)-10-7------|7(6)-|--9-7------|
4)7h9-------------------|-7h9----------------9...-|-----|-------9---|
5)----------------------|-------------------------|-----|-----------|
6)----------------------|-------------------------|-----|-----------|


Ahora si que encontré esa satisfacción
algunas chicas vestidas de negro y azul
rendir tributo a esas majestades
criticados por hacer solo rock and roll.               RIFF 2
                                              1)-----------------------|
(+)                            B5             2)-12-9-12-9---12--------|
Como un banquete de pordioseros               3)-11-9-11-9---11p9------|
          (+)                 B5  RIFF 2      4)------------------11-9-|
exiliados de la calle principal               5)-----------------------|
                                              6)-----------------------|

PUNTEO

1)------------------------------|--------------------------|---------5...
2)-12-9--12-12-9----------------|-10-7----------7-7-7------|-----7-9-----
3)-11-9--11-11-9---11p9---------|--9-7-9--9-(10)------9-7--|-7h9---------
4)----------------------11-9....|-------------------------9|-------------
5)------------------------------|--------------------------|-------------
6)------------------------------|--------------------------|-------------

1)-10-7---------|6/7-----------|-6/7-7------7-7------7-7------7-7-----7-7
2)--9-7-9-7-----|6/7-10-7------|-6/7-7------7-7------7-7------7-7-----7-7
3)------9-7-----|---------9-7--|------9(10)-----9(10)----9(10)---9(10)---
4)----------7h9-|-------------9|-----------------------------------------
5)--------------|--------------|-----------------------------------------
6)--------------|--------------|-----------------------------------------

1)------------------------------5...|5------|----|------------|--------|
2)----------------------------------|-------|7...|12---12-12-9|-9p7----|
3)9(10)-7(6)...--7-------7-9(10)----|----9-9|----|11---11-12-9|--------|
4)-----------------9-7-9------------|-------|----|------------|----9...|
5)----------------------------------|-------|----|------------|--------|
6)----------------------------------|-------|----|------------|--------|

1)------------------------------|
2)-7...-9-7---------7(8)--------|
3)-7...-9-7------7-9----9-7...--|
4)-----------7h9----------------|
5)------------------------------|
6)------------------------------|

(+)                            B5
como un banquete de pordioseros
          (+)                  B5
exiliados de la calle principal.

PUNTEO FINAL

1)-7-------7--------7----------------|
2)-7-------7--------7----------------|
3)---9(10)----9(10)---9(10)p7--------|
4)----------------------------9...---|
5)-----------------------------------|
6)-----------------------------------|

****************************************************************************
BUENO,,,, aca esta costo pero salió.. cualquier duda o sugerencia... hacerla a fedekpo_sf150@
Nada mas... aguante La mocosa!!! Aguante el R´n´R

ah.. si ¿saben como se llama este acoerde?que esta aca abajo
por favor mandenmen un mail diciendo como se llama porque no tengo la menor idea
gracias...

1)------|
2)------|
3)------|
4)--11--|
5)---9--|
6)------|
Suggest correction
Give kudos to tab author, rate the tab!
1 2 3 4 5
comments
print report bad tab
guest
You may want to rate the tab now too:
select rating
Wanna post a correction for this tab? Suggest correction