Oops, an error
Loading. Please wait.

Un Estilo De Vida Tab

version 2
version 2

Whole song

20 views 1 this week
no commentswrite comment
1 2 3 4 5
3 more votes to show rating
add to favorites
launch autoscroll
font size
0
reset
how to read this tab
guitar tuner
Autoscroll
slow
fast
+/-
esc
set tempo
stop
La intro y los solos ya estan en la pagina y estan bien
sacados por eso no se los pongo,
lo que mando son los riffs que hace la segunda guitarra mientras que
la primera toca la base de rocanroll.
Espero que les sirva.


B5                             E5 RIFF 1
Estoy solo y tirado en el sillón
F#5                                  B5 RIFF 2
necesito escuchar un buen rock and roll
B5                                     E5 RIFF 1
esos acordes están sonando en mi mente
F#5                                  B5  RIFF 3
su lengua está tatuada en mi corazón.


F#5                        B5
Ojos celestes que me miran y después
F#5                           B5
solo queda apretar el botón.


B5                                   E5 RIFF 1
Ahora si que encontré esa satisfacción
F#5                                   B5 RIFF 2
algunas chicas vestidas de negro y azul
B5                                 E5 RIFF 1
rendir tributo a esas majestades
F#5                                 B5    RIFF 3
criticados por hacer solo rock and roll.


F#5                            B5
Como un banquete de pordioseros
          F#5                  B5
exiliados de la calle principal


      RIFF 1
E|------------------|------------------|
B|-8/10-10--10-10-8-|-8/10-10--10-10-8-|
G|------------------|------------------|
D|------------------|------------------|
A|------------------|------------------|
E|------------------|------------------|


      RIFF 2
E|-7---7----7----7-|-----------|
B|-7-9-7--9-7--9-7-|-9--7------|
G|---9----9----9---|-9--7--10--|
D|-----------------|-------10--|
A|-----------------|-----------|
E|-----------------|-----------|


      RIFF 3
E|-8-8------8-8------8-8------8-8-|
B|-8-8------8-8------8-8------8-8-|
G|-----9/10-----9/10-----9/10-----|
D|--------------------------------|
A|--------------------------------|
E|--------------------------------|


Durante el estribillo improvisen sobre la base del tema que suena muy bien
Suggest correction
Give kudos to tab author, rate the tab!
1 2 3 4 5
comments
print report bad tab
guest
Wanna post a correction for this tab? Suggest correction