Oops, an error
Loading. Please wait.

Vuelvo A Mi Ciudad Tab

19 views 1 this week
no commentswrite comment
1 2 3 4 5
3 more votes to show rating
add to favorites
×
Save as Personal and add changes to this tab that will be seen only by you. Learn more ›
×
You can save this tab as Personal to edit and correct it or add notes. All changes will be seen only by you. Learn more »
save as personal
new!
launch autoscroll
font size
0
reset
how to read this tab
guitar tuner
Autoscroll
slow
fast
+/-
esc
set tempo
stop
|--(4)-(9)-(9)-----------------|
|--(4)-(9)-(9)-----------------|
|--(5)-(8)-(10)-11-11---11-10--|
|--(6)-(9)-(11)-11-11---11-11--|
|--(6)-(9)-(11)----------------|
|--(4)-(7)-(9)-----------------|

G#
Ya estoy de vuelta
B
abri la puerta
C#
por suerte el viaje termino

G#
No hay mas extraños
B
nadie me mira
C#
no soy el centro de atencion

G#
Hola vecina!
B
ya estoy de vuelta
C#
hace mucho no veo tus tetas

G#
Estuve lejos
B
por algun tiempo
C#
mi Buenos Aires siempre espera

G#
Hola vecino!
B
Malas noticias!
C#
no simpatizo con tu avaricia...

G#
El ruido, el humo,
B
el barrio sucio
C#
no cambio esto por nada del mundo

D#  C#     B     G#
Ah Ah! vuelvo a mi ciudad
D#  C#     B     G#
Ah Ah! Vuelvo a mi ciudad


G#
Ya estoy de vuelta
B
abri la puerta
C#
por suerte el viaje termino

G#
No hay mas extraños
B
nadie me mira
C#
no soy el centro de atencion


D#  C#     B     G#
Ah Ah! vuelvo a mi ciudad
D#  C#     B     G#
Ah Ah! Vuelvo a mi ciudad


(Puenteo)
|---------------------------------------------------|
|-14brh12----12-------------------12---12--14x-14x--|
|---------13---(13v)----11---11-13---13-------------|
|--------------------13----13-----------------------|
|---------------------------------------------------|
|---------------------------------------------------|

|---------------14---14--14--|
|14h12--12---14b--14b--14b---|
|-----13--13-----------------|
|----------------------------|
|----------------------------|
|----------------------------|


|---------------------------------------------------|
|-14brh12----12-------------------12---12--14x-14x--|
|---------13---(13v)----11---11-13---13-------------|
|--------------------13----13-----------------------|
|---------------------------------------------------|
|---------------------------------------------------|

|---------------14---14--14--|
|14h12--12---14b--14b--14b---|
|-----13--13-----------------|
|----------------------------|
|----------------------------|
|----------------------------|


|---------------------------------12----------------|
|-14brh12----12-------------------12---12--14x-14x--|
|---------13---(13v)----11---11-13---13-------------|
|--------------------13----13-----------------------|
|---------------------------------------------------|
|---------------------------------------------------|

|---------------14-----------|
|14h12--12---14b-14b--14b-14b|
|-----13--13-----------------|
|----------------------------|
|----------------------------|
|----------------------------|

|---------------------------------------------------|
|-14brh12----12-------------------12---12--14x-14x--|
|---------13---(13v)----11---11-13---13-------------|
|--------------------13----13-----------------------|
|---------------------------------------------------|
|---------------------------------------------------|

|---------------14---14--14--|
|14h12--12---14b--14b--14b---|
|-----13--13-----------------|
|----------------------------|
|----------------------------|
|----------------------------|


D#  C#     B     G#
Ah Ah! vuelvo a mi ciudad
D#  C#     B     G#
Ah Ah! Vuelvo a mi ciudad

D#  C#     B     G#
Ah Ah! vuelvo a mi ciudad
D#  C#     B     G#
Ah Ah! Vuelvo a mi ciudad

|--------------------------------------------------------|
|----------------------------------------------7---7--7--|
|-6brh4---4--------------4---4-6x-6x--6h4-4--6b--6b-6b---|
|-------6---(6v)---4--4-6--6-------------6---------------|
-----------------6--6------------------------------------|
|--------------------------------------------------------|


|--------------4-------|
|--------------4-------|
|------4-6-6b--5-------|
|--4-6---------6-------|
|-6--------------------|
|----------------------|
Suggest correction
Give kudos to tab author, rate the tab!
1 2 3 4 5
comments
print report bad tab
guest
Wanna post a correction for this tab? Suggest correction