Oops, an error
Loading. Please wait.

Cerveza Y Descontrol Tab

28 views 1 this week
no commentswrite comment
1 2 3 4 5
3 more votes to show rating
add to favorites
launch autoscroll
font size
0
reset
how to read this tab
guitar tuner
×
Best way to learn
"Cerveza Y Descontrol"
Autoscroll
slow
fast
+/-
esc
set tempo
stop
IENTOS:
E|--------------------------------------------------|
B|-13-12-10-----------------------------12-13-12-13-|
G|----------12---12-12-12-14---12-12-12-------------| X2
D|--------------------------------------------------|
A|--------------------------------------------------|
E|--------------------------------------------------|

C                      G                        Am
En la mañana al levantarme quiero estar en otro lado
              F      C                   G
no entrar a clase salgo a algun lado y veo la luna el
F                                C
mismo tren el mismo anden la misma ruta, y no
              G         Am          F        C
quisiste verme mas y dijiste ya no mas y elviernes en
                         G        Am              F
la noche te haces en la calle lo que vos queras, lo
            C5
que vos queras


Coro:
             G5       A5            F5          C5
Mucha cerveza y descontrol mucha cerveza y descontrol
          G5          A5            F5        C5
toda la noche pienso en vos ... toda la noche pienso en vos


VIENTOS:
E|--------------------------------------------------|
B|-13-12-10-----------------------------12-13-12-13-|
G|----------12---12-12-12-14---12-12-12-------------| X2
D|--------------------------------------------------|
A|--------------------------------------------------|
E|--------------------------------------------------|

C                  G                               Am            F
Me paso el día entre problemas el agite y el bullicio de las aceras
C                  G                   Am                   F
te llame a casa y me dijiste porque no llegaste ayer y te perdiste
C                         G          Am
y ya es tarde y no estoy con vos y no encuentro solución
     F
dame una canción y un viernes de relajación
           C5
de relajación


CORO:
             G5       A5            F5          C5
Mucha cerveza y descontrol mucha cerveza y descontrol
          G5          A5       F5        C5
toda la noche pienso que ... nos volveremos a ver

BREAK:
E|----------------------------------------------------|
B|----------------------------------------------X5----|
G|----------------------------------------------------|
D|-------5-----------5---5-----------5------55332200--|
A|-333-3---3---555-5---5---5---333-3---3---3----------|
E|----------------------------------------------------|
   |------------------------pm----------------------|

E|----------------------------------------------|
B|----------------------------------------------|
G|-------------------------------5-5---5~~------|
D|-------5-----------5---5-------5-5---5~~55-7--|
A|-333-3---3---555-5---5---5-----3-3---3~~55-7--|
E|----------------------------------------33-5--|
   |-----------pm-----------|

Coro:
             G5       A5            F5          C5
Mucha cerveza y descontrol mucha cerveza y descontrol
          G5          A5            F5        C5
toda la noche pienso que ... nos volveremos a ver
         G5      A5         F5            C5
nos volveremos a ver alguna otra vez nos volveresmoa aver
         G5      A5         F5            C5
nos volveremos a ver alguna otra vez nos volveresmoa aver


 - LOS ACORDES CON QUINTAS VAN CON DISTORCION
 - EL INTERMEDIO TAMBIEN TIENE DISTORCION Y PALM MUTE
Suggest correction
Give kudos to tab author, rate the tab!
1 2 3 4 5
comments
print report bad tab
guest
You may want to rate the tab now too:
select rating
Wanna post a correction for this tab? Suggest correction