Oops, an error
Loading. Please wait.

Contra La Pared Chords

20 views 1 this week
no commentswrite comment
1 2 3 4 5
3 more votes to show rating
add to favorites
launch autoscroll
font size
0
reset
transpose
0
reset
display chords
guitar tuner
×
Best way to learn
"Contra La Pared"
Autoscroll
slow
fast
+/-
esc
set tempo
stop
     F#m
E|------------                                                                  
B|------------                                                          
G|------------   
D|-5-3-0------                                                                              
A|------------                                                   
E|------------      
     F#m
E|------------
B|------------
G|------------
D|-5-5-3-0----
A|------------ 
M|------------

E|----------------------------
B|----------------------------
G|----------------------------
D|-555-3-1-0---555-3-1-1-0----  X4
A|----------------------------
M|----------------------------

F#m               Gm        F#m          Em    
HAY MUCHA PRESION ALREDEDOR UN AGENTE ESPERA POR VOS
F#m         Gm              F#m        Em
LA POLICIA FUERA DE TU CASA ESPERANDO RECLUIRTE

E|----------------------------
B|----------------------------
G|-------------contra la pared
D|-555-3-1-0---555-3-1-1-0---- x4 
A|----------------------------
M|----------------------------

 F#m            Gm            F#m          Em
SOLO ES UN MANIFESTANTE Y LO TRATAN COMO ASESINO
F#m             Gm        F#m          Em
DETENIDO EN LA REDADA Y SINDICADO DE HOMICIDIO
   Bm          Gm                A 
Y ASESINATOS DE BARBARIE Y DE DEMENCIA
   Bm          Gm                A
AUTORIDADES  LLEVAN SIEMPRE UNA LICENCIA
 Bm          Gm                A 
Y ASESINATOS DE BARBARIE Y DE DEMENCIA
   Bm          Gm                A         F#m  Gm  A       
AUTORIDADES  LLEVAN SIEMPRE  LICENCIA      
Bm  B#m Bm       F#m  Gm  A  Bm  B#m Bm   
POR LA OPRESION             NO HAY OPINIONES
Bm  B#m Bm      F#m  Gm  A  Bm  B#m Bm   
POR LA OPRESION             NO HAY OPINIONES

E|----------------------------
B|----------------------------
G|-------------contra la pared
D|-555-3-1-0---555-3-1-1-0---- x4 
A|----------------------------
M|----------------------------

F#m               Gm        F#m          Em    
HAY MUCHA PRESION ALREDEDOR UN AGENTE ESPERA POR VOS
F#m               Gm            F#m            Em    
LLEVAN CONSIGO UNA LISTA NEGRA EN LA QUE ESTAS INCLUIDO

 Bm          Gm                A 
Y ASESINATOS DE BARBARIE Y DE DEMENCIA
   Bm          Gm                A
AUTORIDADES  LLEVAN SIEMPRE UNA LICENCIA
 Bm          Gm                A 
Y ASESINATOS DE BARBARIE Y DE DEMENCIA
   Bm          Gm                A         F#m  Gm  A       
AUTORIDADES  LLEVAN SIEMPRE  LICENCIA      
Bm  B#m Bm       F#m  Gm  A  Bm  B#m Bm   
POR LA OPRESION             NO HAY OPINIONES
Bm  B#m Bm         F#m  Gm  A  Bm  B#m Bm   
POR LA OPRESION        

     F#m
E|------------                                                                  
B|------------                                                          
G|------------   
D|-5-3-0------                                                                              
A|------------                                                   
E|------------      
     F#m
E|------------
B|------------
G|------------
D|-5-5-3-0----
A|------------ 
M|------------

E|----------------------------
B|----------------------------
G|----------------------------
D|-555-3-1-0---555-3-1-1-0----  X4
A|----------------------------
M|----------------------------
Suggest correction
Give kudos to tab author, rate the tab!
1 2 3 4 5
comments
print report bad tab
guest
You may want to rate the tab now too:
select rating
Wanna post a correction for this tab? Suggest correction