Oops, an error
Loading. Please wait.

Servicio Militar Chords

version 1
version 1

Whole song

13 views 1 this week
no commentswrite comment
1 2 3 4 5
3 more votes to show rating
add to favorites
launch autoscroll
font size
0
reset
transpose
0
reset
display chords
guitar tuner
Autoscroll
slow
fast
+/-
esc
set tempo
stop
Help us to improve Ultimate-Guitar.com Take our survey!
×
ENTRA CON: C F G X2

E|---------------------------
B|---------------------------
G|-5-0-5-0-5-0-9-7-5-0-5/7---
D|---------------------------
A|---------------------------
E|---------------------------

  C F G   X2
E|---------------------------
B|---------------------------
G|-5-0-5-0-5-0-9-7-5-0-5/7---
D|---------------------------
A|---------------------------
E|---------------------------

E|---------------------------
B|---------------------------
G|---4-7-5-5-5-7-4-----------
D|-5-------------------------  X2
A|---------------------------
E|---------------------------

  C                       F
BUENOS DIAS SEÑOR DOCTOR HOY TRAIGO LA BARRIGA LLENA DE ALCOHOL
 C                               F
AYER ESTUVE TOMANDO VINO POR QUE NO ME QUIERO IR A PRESTAR EL SERVICIO
C                                  F
Y SI QUIERE LE PUEDO ENTREGAR UNA BUENA SUMA DE DINERO
  C                                F
OLVIDARSE Y HACERME UN CHEQUEO Y SACARME INHABIL DEL SORTEO
C                 F          C                 G
NO QUEREMOS SEVICIO MILITAR NO PRESTAMOS SERVICIO MILITAR
C                 F          C                 G
NO QUEREMOS SEVICIO MILITAR NO PRESTAMOS SERVICIO MILITAR
C                 F          C                 G
NO QUEREMOS SEVICIO MILITAR NO PRESTAMOS SERVICIO MILITAR
C                 F          C                 G
NO QUEREMOS SEVICIO MILITAR NO PRESTAMOS SERVICIO MILITAR

E|---------------------------
B|---------------------------
G|---4-7-5-5-5-7-4-----------
D|-5-------------------------  X2
A|---------------------------
E|---------------------------

 C                          F
BUENOS DIAS SEÑOR ABOGADO HOY VENGOA HABLARLE A USTED Y A PAGAR
C                                F
AYER ESTUVE TOMANDO VINO POR QUE NO ME QUIERO IR A PRESTAR SERVICIO
C                              F
Y SI USTED DECIDE ACEPTAR UNA BUENA SUMA DE DINERO 
 C                                   F
SE PODRIA LLEGAR A UN ACUERDO Y SACARME DEL MALDITO SORTEO
C                 F          C                 G
NO QUEREMOS SEVICIO MILITAR NO PRESTAMOS SERVICIO MILITAR
C                 F          C                 G
NO QUEREMOS SEVICIO MILITAR NO PRESTAMOS SERVICIO MILITAR
C                 F          C                 G
NO QUEREMOS SEVICIO MILITAR NO PRESTAMOS SERVICIO MILITAR
C                 F          C                 G
NO QUEREMOS SEVICIO MILITAR NO PRESTAMOS SERVICIO MILITAR

'si desean alguna cancion que no encuentren en ningun lado. escriban al imal
reyes_who@ y me dicen  cual es la cancion que desean, asi yo las pondre
en esta pagina...y tambien haga la peticion de la cancion en (atame)...gracias por todo'
Suggest correction
Give kudos to tab author, rate the tab!
1 2 3 4 5
comments
print report bad tab
guest
You may want to rate the tab now too:
select rating
Wanna post a correction for this tab? Suggest correction