Oops, an error
Loading. Please wait.

El Viejo Bolls Tab

25 views 1 this week
no commentswrite comment
1 2 3 4 5
3 more votes to show rating
add to favorites
launch autoscroll
font size
0
reset
how to read this tab
guitar tuner
×
Best way to learn
"El Viejo Bolls"
Autoscroll
slow
fast
+/-
esc
set tempo
stop
Bueno acá les dejo este excelente tema de la moto esta bastante
bien sacado soy Luis.s de Chosma alguna duda
Luis_19rock@

- ~: vibrato. Hacer vibrar la cuerda.
- h: hammer on o ligado ascendente. Se toca la cuerda en un traste.
     y se pisa en otro mayor sin tocar la cuerda.
- p: pull off o ligado descendente. Se toca la cuerda en un traste.
     y se levanta el dedo hacia un traste menor sin tocar la cuerda.
- b: bending, o estirar la cuerda. Se estira la cuerda
     en un traste hasta hacer que suene como, generalmente,
     un semitono o un tono mayor.
-): dejar sonando.
-X: tapar para que no suene.
-/: deslisar.


 El viejo bols y yo
|-0)-----------0)--5x--5-3/5)--
|-3)-----------1)--5x-5--------
|-0)-----------2)--------------
|-0)---------------------------
|------------------------------
|------------------------------

Tenemos cosas de que hablar
|-5)----------0)----------5x-----------------
|-------------1)----------5x?0-1-33/4/3-3-1h-
|-------------2)-----------------------------
|--------------------------------------------
|--------------------------------------------
|--------------------------------------------


   El viejo bols y yo           tenemos que conversar ee
|---0)--------------5x-88-88-77-77---------------0)--5x?-0)--5x-
|---1)--------------5x-88-88-77-77---------------1)?-5x--1)?-5x-
|---2)-------------------------------------------2)------2)-----
|---------------------------------------------------------------
|---------------------------------------------------------------
|---------------------------------------------------------------

     Compañero de las lagrimas         en la mesa de un bar
|----------------------------1---1-1-0)-------------------0)------
|-----------------------------1-1-1?-1)-------------------1)------
|-----4)-----------------------2-----2)---------------------------
|-0-1-2)-----------------------------------------------------0-1-2
|-----------------------------------------------------------------
|-----------------------------------------------------------------


  El viejo bols y yo
|--------------0)--5x--5-3/5)--
|--------------1)--5x-5--------
|--------------2)--------------
|------------------------------
|------------------------------
|------------------------------
Juntos supimos trasnochar
|-5)----------0)----------5x-----------------
|-------------1)----------5x?0-1-33/4/3-3-1h-
|-------------2)-----------------------------
|--------------------------------------------
|--------------------------------------------
|--------------------------------------------
   El viejo bols y yo                  supimos reír y llorar  ee
|---0)-------------5x---8-10-10h-10-10h-----------------0)--5x?-0)--5x
|---1)-------------5x-10--------------------------------1)--5x?-1)--5x
|---2)--------------------------------------------------2)------2)----
|---------------------------------------------------------------------
|---------------------------------------------------------------------
|---------------------------------------------------------------------

 Anesteciante de bajones compañero de horas largas en la mesa de un bar
|----------------------------1---1-1-0)------------1---------0)--------
|-----------------------------1-1-1?-1)-------------1--------1)--------
|-----4)-----------------------2-----2)--------------2-------2)--------
|-0-1-2)----------------------------------------------------------0-1-2
|----------------------------------------------------------------------
|----------------------------------------------------------------------

Solo1:

|------------------------------------------5-7-8-9/10)-
|-------------------------------------6-55-5-----------
|---------5-7h8p7-7b-?8p7p5-55b----5-7-----------------
|-3/5-7b-7-----------------7----5-7--------------------
|------------------------------------------------------
|------------------------------------------------------

Min.1:20
-8h10p8-7h8p7-5-7-5-4-0-------------------------------------------
-----------------------8b-6-5-6-5---------------------------------
---------------------------------7-5b-5h7-567b--7h9p8p7-7h9p8p7-7b
------------------------------------------------------------------
------------------------------------------------------------------
------------------------------------------------------------------
-8------------------
--8--------------5~-
---9-9p7-5~-7-5-7---
--------7-----------
--------------------
--------------------

Min.1:40 Distorcion-
---------------------------------------------------------------------
---------------------------------------------------6-6h8-6-5-3-------
-9b-9b-7p5-7)?7-5-4-4-55-------10-------10-----10-9-----------5-4-2b-
-------------------7----7b-7-9-10-9-7-9-10-9-7-10-------------------
---------------------------------------------------------------------
---------------------------------------------------------------------
 Min.1:59
-----------------------------------------------------------------|
---10-10---10-9-7------------------------------------------------|
-/9--9--9--------10-9-7---------10-9)-8b-8b-7p5-7b---------------|
-----------------------10-9-7-9-10-9)-------------5-7-5-7b-------|
----------------------------------------------------------5-6-7~-|
-----------------------------------------------------------------|

El viejo bols y yo
|--------------0)--5x--5-3/5)--
|--------------1)--5x-5--------
|--------------2)--------------
|------------------------------
|------------------------------
|------------------------------
    Tenemos cosa en común
|-5)----------0)----------5x-----------------
|-------------1)----------5x?0-1-33/4/3-3-1h-
|-------------2)-----------------------------
|--------------------------------------------
|--------------------------------------------
|--------------------------------------------
   El viejo bols y yo                  tenemos una identidad
|---0)-------------5x---8-10-10h-10-10h-----------------------------0-
|---1)-------------5x-10------------------------------------4b-3-1x-1-
|---2)----------------------------------------------------------------
|---------------------------------------------------------------------
|---------------------------------------------------------------------
|---------------------------------------------------------------------

 Anesteciante de bajones compañero de horas largas en la mesa de un bar
|----------------------------1---1-1-0)------------1---------0)--------
|-----------------------------1-1-1?-1)-------------1--------1)--------
|-----4)-----------------------2-----2)--------------2-------2)--------
|-0-1-2)----------------------------------------------------------0-1-2
|----------------------------------------------------------------------
|----------------------------------------------------------------------

Solo2:

|----------------------------------------------11b-11b-
|-9b-9b-9-8-6-44-6b--6-4-------------------------------
|----------------------7-5-7-9b-9-7------10)-----------
|----------------------------------9-7-9-10)-9---------
|------------------------------------------------------
|------------------------------------------------------

-11-10-8--8-10-11-10-8--8-10-11-10-8-----------------------------------
--------11------------11------------11-9/12-11-10-10b------------------
------------------------------------------------------9----------------
-------------------------------------------------------12-10-12-10b10b-
-----------------------------------------------------------------------
-----------------------------------------------------------------------

---------------------|
---------------------|
-8b-8b-7p5-7---------|
------------7-5-5-7)-|
---------------------|
---------------------|
Suggest correction
Give kudos to tab author, rate the tab!
1 2 3 4 5
comments
print report bad tab
guest
You may want to rate the tab now too:
select rating
Wanna post a correction for this tab? Suggest correction