Oops, an error
Loading. Please wait.

En La Punta Del Colchon Tab

version 1
version 1

Whole song

16 views 1 this week
no commentswrite comment
1 2 3 4 5
3 more votes to show rating
add to favorites
launch autoscroll
font size
0
reset
how to read this tab
guitar tuner
×
Best way to learn
"En La Punta Del Colchon"
Autoscroll
slow
fast
+/-
esc
set tempo
stop
La Moto En La Punta del Colchon

Intro:

1|-----------------------------------|
2|-----------------------------------|
3|-----------------------------------|
4|---------------------------------7-| X2
5|-0-0-0-3-5-0-0-0-3-5-0-0-0-3-5-0-7-|
6|---------------------------------5-|

Riff 1: Fill 1                   Fill 2
1|------------------------------|------------------------------|
2|------------------------------|------------------------------|
3|------------------------------|------------------------------|
4|------------------------------|-0-0-0-3-5-=(por 7 veces mas)-|
5|-0-0-0-3-5-=(por 7 veces mas)-|------------------------------|
6|------------------------------|------------------------------|

Riff 1: Fill 1
Tengo todo encanutado
La seda y el importado

Fill 2
El papel la lapicera
El cuaderno y la carpeta

Riff 2
1|-------------|
2|-------------|
3|-------------|
4|-9-9-10-10-9-|
5|-7-7-8--8--7-|
6|-------------|

Yo no quiero no!
Yo no quiero no!
Yo no quiero no!

Riff 3

1|-------------|
2|-------------|
3|-------------|
4|-9-9-7-7-5-4-|
5|-7-7-5-5-3-2-|
6|-------------|

Que me toquen el:

Intro
colchon cho cho cho cho cho.... etc


Repite Todo


Tengo bronca con mis viejos (y talves tengan razon)
Al tratar de que no delire (pegale un boton)
No quisiera que se corte (pero yo soy yo)
Por eso tienen bien clara (la historia de mi colchon)

yo no quiero no
yo no quiero no
yo no quiero no

que me toquen el: colchon cho cho cho cho cho

Solo

1|----------------------------------
2|-8888-7777-5555-4444-5555---------
3|--------------------------5555----
4|-------------------------------7--
5|----------------------------------
6|----------------------------------

1|-----------------------------
2|-8888-7777-5555-4444-------5-
3|-----------------------5-7---
4|---------------------7-------
5|-----------------------------
6|-----------------------------

1|-----------------|-----------
2|-5h6-5h6-5h6-5h6-|-----------
3|-----------------|-7br---7-5-
4|-----------------|-----7-----
5|-----------------|-----------
6|-----------------|-----------

1|------|-------------------|
2|------|-------------------|
3|------|---5---5-7br---7-5-|
4|7-5-7-|-7---7-------7-----|
5|------|-------------------|
6|------|-------------------|

bueno este es un exelente tema de La Moto!! ojala vuelvan a Chosma pronto!

Desde Buta Ranquil, Santiago Carreño
Suggest correction
Give kudos to tab author, rate the tab!
1 2 3 4 5
comments
print report bad tab
guest
You may want to rate the tab now too:
select rating
Wanna post a correction for this tab? Suggest correction