Oops, an error
Loading. Please wait.

Presentes Hoy Tab

6 views 3 this week
no commentswrite comment
1 2 3 4 5
3 more votes to show rating
add to favorites
launch autoscroll
font size
0
reset
how to read this tab
guitar tuner
Autoscroll
slow
fast
+/-
esc
set tempo
stop
Help us to improve Ultimate-Guitar.com Take our survey!
×
Les dejo este temaso de la moto que esta bastante bien sacado
Soy luis de chos malal alguna duda  Luis_19rock@hotmail

Intro:

1ªguitrra

|-77-88-77--777-555-|-77-88-77--777-555-| + Mientras la 1ªviola   +
|-55-55-55--555-555-|-55-55-55--555-555-| + hace esto la 2ªviola  +
|-55-55-55--555-555-|-55-55-55--555-555-| + va haciendo el punteo +
|-----------555-777-|-------------------| + abajo...               +
|-----------555-777-|-------------------|
|----------5---5----|----------5---5----|base del tema.

2ªguitarra

|-------------------|----------------------7-7-8-77/10-1010-121212--
|-------------------|----------------------5------------------------
|-------------------|5-7b7b/9-7-5-7-5b-5-4-5------------------------
|-------------------|-----------------7------------------------------
|-------------------|------------------------------------------------
|-------------------|------------------------------------------------

----------------12-151515-12-15-14-12-11-14-13-11-10-13-12-10-8-10-8-
-12/15-1515---13-----------------------------------------------------
------------14--------------------------------------------------------
----------------------------------------------------------------------
----------------------------------------------------------------------
----------------------------------------------------------------------

------------------------------------|
------------------------------------|
-8/9-12-8/9-12-8/9-12-8/9-12-10-9-7-|
------------------------------------|
------------------------------------|
------------------------------------|

Riff 1:
1|-5-7-8-7-7/10-8-7-

Riff 2:
5|-(3)-2x-
6|-(1)-0x-

Riff 3:
1|-7-7-8-7-7/10-10-12-12-
2|-5---------------------
3|-5---------------------

Riff 4:
1|-12-14-(15)151515-

                     Riff1
El que no miente no jura
Sin culpa sopla el perdón
Es coherente mi locuraa
Si no niego mi razón
No desperdicies mi tiempo
Vamos a usarlo los dos
No pueden nuestros momentos
Ser esclavos de un reloj


Pasado irreversible
                 Riff1
Futuro inpredesible
Futuro soy cuando me quedoo
Pasado soy cuando me voy
    Riff2
Nena      Presentes hoy

   Riff2
Y no te olvides nena presentes hoy

Solo:
1|--7-8-7/10-8-7-5-3-(5)-5-3-0h1p0-7-7-8-7-(5)-3-1-0--------------
2|-5-------------------------------5----------------7-5-7-4-4-4-4-
3|-5-------------------------------5-------------------------------
4|----------------------------------------------------------------
5|----------------------------------------------------------------
6|----------------------------------------------------------------

------------------------------------------------------
---------------------3-5-7-4/5-7-4/5-7-4/5-7-7/10-9-7-
----------------2-4-5---------------------------------
-----------2-4-5---------------------------------------
------2-4-5-------------------------------------------
-2-4-5------------------------------------------------

--------5-7-8-7-7/10-8-7-5-|
---------------------------|
-7-5-7-4-------------------|
---------------------------|
---------------------------|
---------------------------|

Hazte socia de mis ganas
Vamos juntos a desear
No existe ayer   ni mañanaaa
O hay un tiempo para amar

               Riff3
Pasado irreversible
                 Riff4
Futuro inpredesible
Futuro soy cuando me quedoo
Pasado soy cuando me voy
    Riff2
Nena      Presentes hoy

   Riff2
Y no te olvides nena presentes hoy


Solo 2

1|---8-12?----12-12-12-12-12-12-15-14-12-14-13-11-99-
2|-10-------13---13----------------------------------
3|--------14-----14----------------------------------
4|---------------------------------------------------
5|---------------------------------------------------
6|---------------------------------------------------

-17-17-18-17-17/20-20-20-19-17-20-19-17-16-19-18-16-
-15--------------------------------------------------
-----------------------------------------------------
----------------------------------------------------
------------------------------------------------------
-----------------------------------------------------

-15-18-17-15-14-17-16-14-13-16-15-13-12-15-14-12--
---------------------------------------------------
-------------------------------------------------
-------------------------------------------------
--------------------------------------------------
--------------------------------------------------

-11-14-13-11-10-13-12-10-9-10-11-12-11-8-11-9-
----------------------------------------------
------------------------------------------------
-------------------------------------------------
-------------------------------------------------
--------------------------------------------------

------------------7-7-8-7-7/10-10-12-12|
------------------5--------------------|
------------------5--------------------|
-8/9-8-7-4-6/7-(5) --------------------|
---------------------------------------|
---------------------------------------|
---------------------------------------|
Suggest correction
Give kudos to tab author, rate the tab!
1 2 3 4 5
comments
print report bad tab
guest
You may want to rate the tab now too:
select rating
Wanna post a correction for this tab? Suggest correction