Oops, an error
Loading. Please wait.

Tiren Las Armas Al Mar Tab

by La Moto
16 views 1 this week
no commentswrite comment
1 2 3 4 5
3 more votes to show rating
add to favorites
launch autoscroll
font size
0
reset
how to read this tab
guitar tuner
Autoscroll
slow
fast
+/-
esc
set tempo
stop
Les dejo el tab de este temaso le faltan los solos
Soy Luis.s de chos ma alguna duda Luis_19rock@
Este tema se lo dedico a chilo un amigo.

Intro:

1|--------------------------|----------------------0-|
2|-----0------0------3--3-3-|-----0------0------3--3-|
3|----0-0----0-0----0--0-0--|----0-0----0-0----0---0-|
4|---4------4------4--4-4---|---4------4------4----4-|
5|--2------2----------------|--2------2------------0-|
6|-0------0------0----------|-0------0------0------0-|


1|-------------------------------------|
2|-------------------------------------|
3|-------------------------------------|
4|-------------------------------------|  x2
5|-7-9-9999--7-9-9999-7-9-7-9-7-5-5555-|
6|-5-7-7777--5-7-7777-5-7-5-7-5-3-3333-| base del tema.


            4|-5-3---5-2-|
Riff 1:     5|-----5-----|
            6|-----------|

Tiren las armas al mar paren con la destrucción
                                                   Riff1
Que hay muchas manchas de sangre teniendo el océano

Tiren las armas al mar que ya son muchos los muertos
                                                   Riff1
Que están tiñendo de sangre las arenas del desierto

No detonen mas cañones no disparen más misiles
                                            Riff1
Tiren las armas al mar municiones y fusibles
[ch]A5                  SI5[/ch] [ch]C5[/ch]
Se están matando entre hermanos

Reflexionen no sean jiles... Intro

Solo

Tiren las armas al mar dense abrazos y besos
                                                    Riff1
Que están las madres llorando rezando por tu regreso

No detonen mas cañones no disparen más misiles
                                            Riff1
Tiren las armas al mar municiones y fusibles
[ch]A5                  SI5[/ch] [ch]C5[/ch]
Se están matando entre hermanos

Reflexionen no sean jiles... Intro

5|7-9-797-7-9-797-795-7-9-797-7-9-797-795-
6|5-7-575-5-7-575-573-5-7-575-5-7-575-573-

5|-999-777-555-333-222-999-777-111-333-222-
6|-777-555-333-111-000-777-555-333-111-000-

Aguante La Moto...
Suggest correction
Give kudos to tab author, rate the tab!
1 2 3 4 5
comments
print report bad tab
guest
Wanna post a correction for this tab? Suggest correction