Oops, an error
Loading. Please wait.

Brisa Chords

version 2
version 2

Whole song

70 views 1 this week
no commentswrite comment
1 2 3 4 5
3 more votes to show rating
add to favorites
launch autoscroll
font size
0
reset
transpose
0
reset
simplify chords
display chords
guitar tuner
Autoscroll
slow
fast
+/-
esc
set tempo
stop
Help us to improve Ultimate-Guitar.com Take our survey!
×
Cejilla al Primer Traste


Dm
Brisa es tu nombre.
              F     E7   Am
Vuelas en tus sueños sin cesar.
Dm
Quiebras un instante,
              F     E7  Am
Cierras media puerta y te vas
Dm
Ruego por volverte a ver,
     Am
Rezo por, todo lo que ves.
   F
Tu pena es siempre la misma:


Estribillo:
C
Quiero verte desde lejos,
Em
saber que el sueño, no fue un sueño
F
y un día que, vuelvas sin mas,
                   G 
Se que tu voz me dirá te quiero
C
Torpemente, le deseo,
Em
que cruce el mar con fe y sin miedo.
F                          E7
Brisa es su nombre y quiere marchar.


Dm
Siempre rompe espejos.
          F      E7     Am
Odiará su cara asta el final.
Dm
Tiene muchos miedos;
               F   E7   Am
y uno es el de no poder amar.
Dm
Una leyenda que crece en mí,
    Am
una voz, que nunca voy a oír
F
Mi pena es siempre la misma.


Estribillo:
C
Quiero verte desde lejos,
Em
saber que el sueño, no fue un sueño
F
y un día que, vuelvas sin mas,
                   G 
Se que tu voz me dirá te quiero
C
Torpemente, le deseo,
Em
que cruce el mar con fe y sin miedo.
F                          E7
Brisa es su nombre y quiere marchar.


Puente:

Acompañamiento:
    Dm                          F      E7      Am
Punteo:
E|------------------|----------------------------------|
A|------------------|----------------------------------|
D|------------------|----------------------------------|
G|------------------|----------------2---------------2-|
B|--1/3---1---3-----|--1/3---1---0-------3---1---0-----|
e|----------------0-|----------------------------------|

    Dm                           Am

E|--------------------------------------------------|
A|--------------------------------------------------|
D|--------------------------------------------------|
G|----------------------------------------2-------2-|
B|--1/3---------------3---1-------3---1-------3-----|
e|--------3---1---0-----------0---------------------|

        F                 G 

E|--------------------------------|
A|--------------------------------|
D|--------------------------------|
G|------------------1---0---1-----|
B|--3---4---3---1---------------1-|
e|--------------------------------|


Estribillo:
C
Quiero verte desde lejos,
Em
saber que el sueño, no fue un sueño
F
y un día que, vuelvas sin mas,
                   G 
Se que tu voz me dirá te quiero
C
Torpemente, le deseo,
Em
que cruce el mar con fe y sin miedo.
F                          C          G 
Brisa es su nombre y quiere marchar. No marchará
        C
Por eso torpemente, le deseo,
    Em
que cruce el mar con fe y sin miedo.
F                          E7
Brisa es su nombre y quiere marchar
          G 
Quiere marchar
          C
Quiere marchar
          G 
Quiere marchar
          C
Quiere marchar.
Suggest correction
Give kudos to tab author, rate the tab!
1 2 3 4 5
comments
print report bad tab
guest
You may want to rate the tab now too:
select rating
Wanna post a correction for this tab? Suggest correction