Oops, an error
Loading. Please wait.

Adios Con Adios Se Paga chords

22 views 1 this week
no commentswrite comment
1 2 3 4 5
3 more votes to show rating
add to favorites
×
Save as Personal and add changes to this tab that will be seen only by you. Learn more ›
×
You can save this tab as Personal to edit and correct it or add notes. All changes will be seen only by you. Learn more »
launch autoscroll
font size
0
reset
transpose
0
reset
display chords
guitar tuner
edit
Autoscroll
slow
fast
+/-
esc
set tempo
stop
Strumming
There is no strumming pattern for this song yet. and get +5 IQ
INTRO

y dicee...

1|------------------------------------------------------------------------------------|
2|-----1-0----1--0--------0------0----------------------------------------0h1-0-------|
3|----------2------2--------2--0----2-0---2-2-2-0--2-0-------------------1------2-----|
4|--2---------------3--0---------------2----------3---0h2s3-2---2-3-2-1-2-------------|
5|------------------------------------------------------------------------------------|
6|------------------------------------------------------------------------------------|
 
oye que sabor...

1|------------------------------------------------------------------------------------|
2|-----13-12----13-12-----------12--------12------------------------------------------|
3|-----------14------14------------14--12-----14-12----14-14-14-12---14-12------------|
4|--14------------------15-12----------------------14--------------15-----12h14s15-14-|
5|------------------------------------------------------------------------------------|
6|------------------------------------------------------------------------------------|


1|--------------------------------12-15-14-13-12------|
2|-------------------12h13-12---13--------------------|
3|----------------13----------14----------------------|
4|--14-15-14-13-14------------------------------------|
5|----------------------------------------------------|
6|----------------------------------------------------|


 Am         Dm
Adios, amor
             G
no vayas a pensar
                C
que hay otro en mi vida
               F
dijiste por buscar
       Dm            F            
una salida, por no decir
             E
se me acabo el amor

 Am         Dm
Adios, amor
             G
que palabra ideal
             C
para partirme el alma
               F
para siempre adios
Dm        E           Am      
amor, y me quede llorandote

Estribillo:
                          E
Pero como adios con adios se paga
             Am
te deseo buena suerte
                  E
tu error ha sido olvidarme
                Am
y el mio quizas quererte

          Am                  E      
Pero como adios con adios se paga
               Am
me voy cantando bajito
                    E
con mi vida a otros brazos
                  Am
que me haga sentir bonito

          F
ya no volvere
           E
pero se que tu
           Am
te arrepentiras

Am - E


AGUANTE LA NUEVA LUNA!!!
Cualquier duda, o para intercambiar tabs, al mail
-- El MaGo --
Suggest correction
Creating personal tab
Creating personal tab
You can edit any tab online and save it as your Personal.

You can edit, replace or remove any tab part or add personal notes – all changes will be seen only by you.

Personal tabs can be accessed anytime from any device, even offline.
Learn more »
Give kudos to tab author, rate the tab!
1 2 3 4 5
comments
print report bad tab
guest
Wanna post a correction for this tab? Suggest correction