Oops, an error
Loading. Please wait.

Como El Agua Mansa tab

47 views 1 this week
no commentswrite comment
1 2 3 4 5
3 more votes to show rating
add to favorites
×
Save as Personal and add changes to this tab that will be seen only by you. Learn more ›
×
You can save this tab as Personal to edit and correct it or add notes. All changes will be seen only by you. Learn more »
launch autoscroll
font size
0
reset
how to read this tab
guitar tuner
edit
Autoscroll
slow
fast
+/-
esc
set tempo
stop
intro:
(Cm - Bb - Cm )x4
                   y luego


1|--------------------------------------------------|
2|---------6-6---------6---6----8-8-----------------|
3|-8-5-8-5-----7-7-------7---7-----8-8-5------------|
4|-----------------8--------------------------------|
5|--------------------------------------------------|
6|--------------------------------------------------|

1|---------------------6----6---6-7-8--------------|
2|---------6-6------------9---9-------8-6----------|
3|-8-5-8-5-----7-7------------------------8-7-7-5--|
4|-----------------8-------------------------------|
5|-------------------------------------------------|
6|-------------------------------------------------|

1|-------------------------------------------------|
2|---------6-6---------6---6----8-8----------------|
3|-8-5-8-5-----7-7-------7---7-----8-8-5-----------|
4|-----------------8-------------------------------|
5|-------------------------------------------------|
6|-------------------------------------------------|

1|---------------------6----6---6-7-8--------------|
2|---------6-6------------9---9-------------6h7h8--|
3|-8-5-8-5-----7-7---------------------------------|
4|-----------------8-------------------------------|
5|-------------------------------------------------|
6|-------------------------------------------------|


1|-----------|
2|-----------|
3|-0-0-0-3-4-|
4|-----------|
5|-----------|
6|-----------|


Cm
En noches de cumbias
              G#
poblada de estrellas
             Bb
entre mil colores
               Cm
eres la mas bella

Suave movimiento
tienen tus caderas
como cuando el viento
mece las palmeras


------### estribillo ###------

Cm
Y en ese paisaje 
           G
de luna serena

perfumada brisa
           Cm
de las azucenas

   Bb            Cm                  
|  Como el agua mansa     |  
|  Bb            Cm        |        
|  que besa la arena        | [X2]      
|  Bb           Cm        | 
|  quisiera quedarme      |
|  G             Cm        |
|  junto A MI morena                      

------### estribillo ###------


repite intro
repite estribillo


AGUANTE LA NUEVA LUNA!!!
Cualquier duda, o para intercambiar tabs, al mail
-- El MaGo --

            
            
Suggest correction
Creating personal tab
Creating personal tab
You can edit any tab online and save it as your Personal.

You can edit, replace or remove any tab part or add personal notes – all changes will be seen only by you.

Personal tabs can be accessed anytime from any device, even offline.
Learn more »
Give kudos to tab author, rate the tab!
1 2 3 4 5
comments
print report bad tab
guest
Wanna post a correction for this tab? Suggest correction