Oops, an error
Loading. Please wait.

Como Olvidarla tab

95 views 1 this week
no commentswrite comment
1 2 3 4 5
3 more votes to show rating
add to favorites
×
Save as Personal and add changes to this tab that will be seen only by you. Learn more ›
×
You can save this tab as Personal to edit and correct it or add notes. All changes will be seen only by you. Learn more »
launch autoscroll
font size
0
reset
how to read this tab
guitar tuner
edit
Autoscroll
slow
fast
+/-
esc
set tempo
stop
 Intro guitarra

    E                       G#m
 e|--------------------------------------|
 b|----------------/12(x3)---------------|
 g|-9(x4)-8-9-11-9---------8(x4)-7-8-9-8-|
 d|--------------------------------------|
 a|--------------------------------------|
 E|--------------------------------------|

             A
 e|---------9-11-12-11-11-9-11-9-9----9-------|
 b|-/12(x4)------------------------12---12-12-|
 g|-------------------------------------------|
 e|-------------------------------------------|
 a|-------------------------------------------|
 E|-------------------------------------------|

                B
 e|--------------------------------|
 b|-10-12-10-9---------------------|
 g|------------8-8-9-11---8-8-9-11-|
 d|--------------------------------|
 a|--------------------------------|
 E|--------------------------------|

    E                       G#m
 e|--------------------------------------|
 b|----------------/12(x3)---------------|
 g|-9(x4)-8-9-11-9---------8(x4)-7-8-9-8-|
 d|--------------------------------------|
 a|--------------------------------------|
 E|--------------------------------------|

             A
 e|---------9-11-12-11-11-9-11-9-9----9-------|
 b|-/12(x4)------------------------12---12-12-|
 g|-------------------------------------------|
 e|-------------------------------------------|
 a|-------------------------------------------|
 E|-------------------------------------------|

                        B
 e|-----------------------7----------|
 b|-10-12-10-9------------7--10-9----|
 g|-------------8-8-11-8--8-------11-|
 d|----------------------------------|
 a|----------------------------------|
 E|----------------------------------|


  =Letra=

   E                    G#m
  Como, como voy a olvidarla
        C#m
 si su imagen se quedo grabada
            G#m
 como un tatuaje dentro de mi alma
            A
 y aunque trate de curar mi herida
              E
 con otras caricias no puedo arrancarlas
        F#m
 y con forme se pasan los dias
                B
 crece mas mi herida y mas a ella la extraña

   E                               G#m
  Como, como aceptar que ya no es mia

 y que la he perdido
          C#m
 si con ella dormira mis sueños
             G#m
 nada me faltaba y el mundo era mio
             A
 y ahora que no esta conmigo
                 E
 lo he perdido todo me siento vacio
                  F#m
 como voy a hacer para olvidarla
                     B
 si ella esta en el aire que ella y yo respiro


      C#m
  Si todo la recuerda
        F#m
 y mi mente no concibe
      B
 por que no dejo huellas?
   E
 adonde pudo irse?
              B
 porque me estoy volviendo loco
         A
 porque me dejo tan solo
            E
 no lo entiendo


     C#m
  Y todo la recuerda
       F#m
 y muriendo estoy por verla
           B
 se hacen eternos los minutos
            E
 me esta matando no tenerla
         B
 Como haré para olvidarla?
          A
 si vivo para recordarla
           E
 no lo entiendo


 e|-----------------------|
 b|---------------7-------|
 g|-------------7---9-7-9-|
 d|---------7-9-----------|
 a|-----7-9---------------|
 E|-7-9-------------------|

 Ahi tienen la empesada del punteo final.
 es muy largo y m da muxa lata. bueno nos
 estaremos viendo cabrones.

 =EN HONOR DE EVELYN CONTRERAS=
 t amo, q la edad no cea un impedimento.

  =NOTAS=

    E  G#m C#m  A  F#m  B
 e|-7-|-7-|-4-|-5-|-5-|-7-|
 b|-9-|-9-|-5-|-5-|-7-|-7-|
 g|-9-|-8-|-6-|-6-|-6-|-8-|
 d|-x-|-x-|-x-|-x-|-x-|-x-|
 a|-x-|-x-|-x-|-x-|-x-|-x-|
 E|-x-|-x-|-x-|-x-|-x-|-x-|

            
            
Suggest correction
Creating personal tab
Creating personal tab
You can edit any tab online and save it as your Personal.

You can edit, replace or remove any tab part or add personal notes – all changes will be seen only by you.

Personal tabs can be accessed anytime from any device, even offline.
Learn more »
Give kudos to tab author, rate the tab!
1 2 3 4 5
comments
print report bad tab
guest
Wanna post a correction for this tab? Suggest correction