Oops, an error
Loading. Please wait.

Cumbia Cuentale tab

63 views 1 this week
no commentswrite comment
1 2 3 4 5
3 more votes to show rating
add to favorites
×
Save as Personal and add changes to this tab that will be seen only by you. Learn more ›
×
You can save this tab as Personal to edit and correct it or add notes. All changes will be seen only by you. Learn more »
launch autoscroll
font size
0
reset
how to read this tab
guitar tuner
edit
Autoscroll
slow
fast
+/-
esc
set tempo
stop
** Quiero creer que el que mando la transcripcion anterior tenia la guitarra 
desafinada, o no tiene idea de lo que es un acorde, porque todas sus 
transcripciones estan mal por lo menos eso pienso yo, si me equivoco avisenme, 
no hay drama, pero me parece que asi suena mejor:

intro:

1|------------------------|       
2|--------9---------------|      
3|--10--10--10--8-8-6-8-8-| (x2) 
4|------------------------|       
5|------------------------|       
6|------------------------|      

esta parte que viene ahora, se toca en teclado, pero pueden hacerla igual

1|----------------8-8-------8------------------6-6-----6-----|
2|------------9-9---------9----9-----------8-8-------8---8---|
3|-10---10-10----------10--------10----8-8---------8-------8-|    (x2)
4|-----------------------------------------------------------|
5|-----------------------------------------------------------|
6|-----------------------------------------------------------|

1|------------------8-----|
2|------9-8-9-----9-------|
3|--10--------10----------|
4|------------------------|
5|------------------------|
6|------------------------|


Fm      D#         Fm
Cumbia, quien tendra sus besos
D#               Fm
quien tendra su cuerpo
C            Fm
sus labios de miel.

Fm  D#        Fm
Dile que sufro por ella
D#               Fm
que sufro de ausencia
C              Fm
pronto morire.

         Bbm      
Cuando la recuerdo
D#            G#
mas y mas la quiero
             Bbm
porque fui el primero
C              Fm
que abrigo en su cuerpo

         Bbm      
Hoy estoy tan lejos
D#          G#
vivo prisionero
Fm            Bbm
extraño sus besos
             C        
sus besos de miel

Fm        D#
Cumbia, dile
             Fm
que sufro por ella
        D#
si no vuelve
          Fm
pronto morire.

            
            
Suggest correction
Creating personal tab
Creating personal tab
You can edit any tab online and save it as your Personal.

You can edit, replace or remove any tab part or add personal notes – all changes will be seen only by you.

Personal tabs can be accessed anytime from any device, even offline.
Learn more »
Give kudos to tab author, rate the tab!
1 2 3 4 5
comments
print report bad tab
guest
Wanna post a correction for this tab? Suggest correction