Oops, an error
Loading. Please wait.

De A Poquito chords

29 views 1 this week
no commentswrite comment
1 2 3 4 5
3 more votes to show rating
add to favorites
×
Save as Personal and add changes to this tab that will be seen only by you. Learn more ›
×
You can save this tab as Personal to edit and correct it or add notes. All changes will be seen only by you. Learn more »
launch autoscroll
font size
0
reset
transpose
0
reset
display chords
guitar tuner
edit
Autoscroll
slow
fast
+/-
esc
set tempo
stop
Strumming
There is no strumming pattern for this song yet. and get +5 IQ
intro:

1|-------------------------------------------------10-10-10-10--8-6-8---|
2|------------------10-9-10-9-10---------------10-------------------8---|
3|---10-9-10-9-10----------------10-------9-10--------------------------|
4|----------------12----------------11-12-------------------------------|
5|----------------------------------------------------------------------|
6|----------------------------------------------------------------------|


1|----------------------------------------------8-8-8-8-6-8-10--------|
2|------------------8-7-8-7-8-----------------8----------------10-----|
3|-9-8-9-8-9------------------9-9-----------9-------------------------|
4|-----------10-10------------------10-9-10---------------------------|
5|--------------------------------------------------------------------|
6|--------------------------------------------------------------------|

eso dos veces y despues ...

 (Dm - C)  x4

estribillo:

Dm                        C      
Yo no se que pasa que otra vez
                       Dm      
de a poquito a poco me enamore
                     C
y yo que creia que te perdi
                             Dm
hoy yo me doy cuenta que no es asi
(x2)

F                         C
De a poquito a poco me fui enamorando yo otra vez
Bb                                Dm           C      
sin pensar que ayer llore y tambien sufri por tu querer
F                         C
nada importa ya solo me importas tu y nadie mas
Bb                       Dm             C      Dm
ni lo que diran, seguro tus amigas hablaran


repite estribillo
repite todo


Aguante LA NUEVA LUNA!!!
Cualquier duda, o consulta, al mail
--El MaGo--

            
            
Suggest correction
Creating personal tab
Creating personal tab
You can edit any tab online and save it as your Personal.

You can edit, replace or remove any tab part or add personal notes – all changes will be seen only by you.

Personal tabs can be accessed anytime from any device, even offline.
Learn more »
Give kudos to tab author, rate the tab!
1 2 3 4 5
comments
print report bad tab
guest
Wanna post a correction for this tab? Suggest correction