Oops, an error
Loading. Please wait.

La Pagaras tab

version 1
version 1

Whole song

Interactive

110 views 1 this week
no commentswrite comment
1 2 3 4 5
3 more votes to show rating
add to favorites
×
Save as Personal and add changes to this tab that will be seen only by you. Learn more ›
×
You can save this tab as Personal to edit and correct it or add notes. All changes will be seen only by you. Learn more »
launch autoscroll
font size
0
reset
how to read this tab
guitar tuner
edit
Autoscroll
slow
fast
+/-
esc
set tempo
stop
Esta cancion me la pidio una persona, muy enfadosa por cierto, k
le gusta mucho este grupo. Y la guitarra suena genial, es una de
las pocas bandas de este estilo k me gustan por la forma en k
toca este guitarrista la verdad si se la saca. weno pues este es
el 1er. minuto de la cancion la verdad esta medio cmplicado asi
k ponte a practicar, cualkier duda me pueden escribir a mi correo
"slash_skeleton@

           x7
E||--------------3-----|
B||------------3-------|
G||----------3---------|
D||--------5-----------|
A||------5-------------|
E||--------------------|

aki empieza lo chido ! :
E||------------------------------------|
B||------------------------------------|
G||-3-2---3-2------2-----2-------------|
D||-----5-----5-3----5-3---5-3-3/5-----|
A||------------------------------------|
E||------------------------------------|

E||------------------------------------|
B||------------------------------------|
G||-3-2---3-2----5-7-8-5-7-3-5---------|
D||-----5-----5----------------3-3h5---|
A||------------------------------------|
E||------------------------------------|

E||-6-5---6-5-----5-----5--------------|
B||-----8-----8-6---8-6---8-6-6h8------|
G||------------------------------------|
D||------------------------------------|
A||------------------------------------|
E||------------------------------------|

E||-6-5---6-5----8-10-11-8-10-6-8---------|
B||-----8-----8-------------------6-6h8---|
G||---------------------------------------|
D||---------------------------------------|
A||---------------------------------------|
E||---------------------------------------|

E||--------15------------------------------|
B||--6/8-----------------------------------|
G||-------------12-------------------------|
D||-----------------------3-4-5------------|
A||-----------------5-5-5------------------|
E||----------------------------------------|

Eres tuuu....
E||---------------------3---3-----------1--|
B||-------------------3-----3---------1----|
G||-3---3---0-3---0-3-------3-------2------|
D||---5---5-----5---------5---5-2-3--------|
A||----------------------------------------|
E||----------------------------------------|

E||-6--------------------------------------|
B||---8-6-8-6---6--------------------------|
G||-----------7---7-5-7-5-3-5-3------------|
D||-----------------------------5-3-5------|
A||----------------------------------------|
E||----------------------------------------|

E||------------------------8---8-------10---10-|
B||---------------3----------------------------|
G||---2---------3---3---/5---5---5-6-7----7----|
D||-3---1-2---5--------------------------------|
A||---------5----------------------------------|
E||--------------------------------------------|

E||-----------3-5--|
B||---------3------|
G||-------3--------|
D||-----4----------|
A||---4------------|
E||-3--------------|

Pero ya veras...
E||--------------------------------------------------|
B||------------------------------------------------3-|
G||---2---------2----------2-------------0--2-3-2-3--|
D||-3---1-2-2/3---3-4-5--3---1-2-2/3---0-------------|
A||--------------------------------------------------|
E||--------------------------------------------------|

E||---------------------------------------|
B||---------------------------------------|
G||---2---------2----------2--------------|
D||-3---1-2-2/3---3-4-5--3---1-2-2/3------|
A||---------------------------------------|
E||---------------------------------------|

E||-----------------------------3---------|
B||-------------3-------------3-----------|
G||---0-2-3-2-3-----0-2-3-2-3-------------|
D||-0-------------0-----------------------|
A||---------------------------------------|
E||---------------------------------------|

Yaa loo veraas...
E||-------5--|
B||-----3----|
G||---3------|
D||-5--------|
A||----------|
E||----------|

            
            
Suggest correction
Creating personal tab
Creating personal tab
You can edit any tab online and save it as your Personal.

You can edit, replace or remove any tab part or add personal notes – all changes will be seen only by you.

Personal tabs can be accessed anytime from any device, even offline.
Learn more »
Give kudos to tab author, rate the tab!
1 2 3 4 5
comments
print report bad tab
guest
Wanna post a correction for this tab? Suggest correction