Oops, an error
Loading. Please wait.

No Debes Llorar tab

66 views 1 this week
no commentswrite comment
1 2 3 4 5
3 more votes to show rating
add to favorites
×
Save as Personal and add changes to this tab that will be seen only by you. Learn more ›
×
You can save this tab as Personal to edit and correct it or add notes. All changes will be seen only by you. Learn more »
launch autoscroll
font size
0
reset
how to read this tab
guitar tuner
edit
Autoscroll
slow
fast
+/-
esc
set tempo
stop
No debes llorar

(intro en el teclado, hace base)

1|-----10---|
2|-----10---|
3|-----10---| (A)
4|---12-----|
5|----------|
6|----------|


1|-----------------13-12-10----13-12-10-||-----------------13-12-10----13-12-10-|
2|--------------10----------10----------||--------------10----------10----------|
3|-----10-9---10------------------------||-----10-9---10------------------------| (B)
4|---12-----12--------------------------||---12-----12--------------------------|
5|--------------------------------------||--------------------------------------|
6|--------------------------------------||--------------------------------------|

1|--------------12-10-8---12-10-8-------||--------------12-10-8---12-10-8-------|
2|-------------8--------8---------------||-------------8--------8---------------|
3|----9-7----9--------------------------||----9-7----9--------------------------| (C)
4|-10-----10----------------------------||-10-----10----------------------------|
5|--------------------------------------||--------------------------------------|
6|--------------------------------------||--------------------------------------|


Empieza el punteo en el teclado, y de base hacemos (A)

Cuando termina el teclado, hacemos B, despues C, REPITE B, y REPITE C

y termina asi

1|--8-9-10---13-13-10---10----------------------|
2|-------------------13---13-10---10------------|
3|------------------------------12--12-10-9-----| 
4|-----------------------------------------12---|
5|----------------------------------------------|
6|----------------------------------------------|


    No debes llorar cuando me vaya - No debes llorar cuando me vaya - Que no opaque el llanto todo el brillo
1|-------------------------------------------------------------------------------------------------------3----|
2|----------------------------------------------------------------------------------------------------3-------|
3|--10------10----10-----10----10------10-----10-----10----10----10---------9-------9---------------3---------|
4|11--11------12----11-----12----12------11----12------11----12---------10----8h10----10-----5-4-5------------|
5|------------------------------------------------------------------------------------------------------------|
6|------------------------------------------------------------------------------------------------------------|


 Que tenès en esa hermosa cara

1|---------------5-5-5-5-------|
2|---------------5-5-5-5-8-6---|
3|---------6-5-6---------------| 
4|---7-6-7---------------------|
5|-----------------------------|
6|-----------------------------|


No debes sufrir porque me marcho - No debes sufrir porque me marcho - Yo estaré contigo si me extrañas
1|------------------------------------------------------------------------------------------------------3----|
2|----------------------------------------------------------------------------------------------------3-------|
3|---------------10---10------10---10----10-----10----10----10---10---------9-------9---------------3---------|
4|---10-11-12------11---12------11---12----12------11----12----11---12---10----8h10----10-----5-4-5------------|
5|-12----------------------------------------------------------------------------------------------------------|
6|-----------------------------------------------------------------------------------------------------------|


Contigo siempre estará mi alma

1|-----------------5-5----------|
2|---------------5--8-8--6-5----|
3|---------6-5-6-------------7--| 
4|---7-6-7----------------------|
5|------------------------------|
6|------------------------------|


Dejare contigo aquí mis besos - Para que los guardes de recuerdo      También la canción que te gustaba 

1|------------------------------------------------------------10h11------------------------------------------|
2|----------------------------------------------------------10-----------------------------------------------|
3|----9------9-------10------10-------9------9------------10---------------9------9-------10-------10--------|
4|-10---8h10---10--12--10h12---12--10---8h10--10--12-11-12--------------10---8h10---10-12----10h12----12-----|
5|-----------------------------------------------------------------------------------------------------------|
6|-----------------------------------------------------------------------------------------------------------|


Para que la escuches   con mi alma

1|--------------------------------------------|
2|--------------------------------------------|
3|----9-------9-------------------------------| 
4|-10---8h10----10---12-10h11h12--12-10h11h12-|
5|--------------------------------------------|
6|--------------------------------------------|


No quiero verte lloraaaaaaaaaaaaaaaaaaaaaaaaaar -------------  Cuando tengas que marchaaaaaaaaar

1|--------------------------------------------------------------6-5-3-----13-10---10--------------------------|
2|-13------------13-------13-----13-------13-------------------3------6---------13--13-10-13--10----10--------|
3|-10-----------------------------------------------------3-2-3-----------------------------------12---12-10--|
4|-10----------10--10s9s10---9s10--10s9s10---10------5-4-5----------------------------------------------------|
5|------------------------------------------------------------------------------------------------------------|
6|------------------------------------------------------------------------------------------------------------|


      Quiero que tu estés feliiiiiiiiiiiiiiiiiiiiiiiiiiz ----------- Aunque no estés junto a miiiiiiii

1|------------------------------------------------------------3----3-----------------------------------------|
2|--------------------------13-------13-----13-------13-------3--6---6--3--3--3--2--3--2------------------10-|
3|------------------------------------------------------------3----------5--5----------------------10-9-10---|
4|--2------2----------2---10--10s9s10---9s10--10s9s10---10----5---------------------------12-11-12-----------|
5|-3--1--2---3----1h3--3-------------------------------------------------------------------------------------|
6|-----------------------------------------------------------------------------------------------------------|
			
		 
            Quiero que estés feliz

1|13-12-10----------------------------------------12---|	
2|---------13----------------8-11--11-8-----------10---|	
3|--------------------------9----------9----------10---|	
4|------------------------10------------10-------------|	
5|-----------------------------------------------------|	
6|-----------------------------------------------------|	


REPITE TODO


En la 2da parte, hace dos veces el estribillo, y cambia los punteos, las notas son las mismas, son parecidas, 
las bases estan, si pueden tocar hasta aca, no creo que tengan problema en sacar lo que falta. 
ESTO NO ES NECESARIO PARA QUE SUENE BIEN, PERO SI PARA TOCARLO 100% IGUAL


AGUANTE LA NUEVA LUNA!!!
Cualquier duda, o para intercambiar tabs, al mail
-- El MaGo --

            
            
Suggest correction
Creating personal tab
Creating personal tab
You can edit any tab online and save it as your Personal.

You can edit, replace or remove any tab part or add personal notes – all changes will be seen only by you.

Personal tabs can be accessed anytime from any device, even offline.
Learn more »
Give kudos to tab author, rate the tab!
1 2 3 4 5
comments
print report bad tab
guest
Wanna post a correction for this tab? Suggest correction