Oops, an error
Loading. Please wait.

No Me Lo Creo tab

version 1
version 1

Whole song

90 views 3 this week
no commentswrite comment
1 2 3 4 5
3 more votes to show rating
add to favorites
×
Save as Personal and add changes to this tab that will be seen only by you. Learn more ›
×
You can save this tab as Personal to edit and correct it or add notes. All changes will be seen only by you. Learn more »
launch autoscroll
font size
0
reset
how to read this tab
guitar tuner
edit
Autoscroll
slow
fast
+/-
esc
set tempo
stop
Intro:
1|-----------------------------------------------------------
2|---------15-13-15-15h16-15h16-16-16-16-16-15-13---13-------
3|---12-15----------------------------------------15---15-14-
4|-12--------------------------------------------------------
5|-----------------------------------------------------------
6|-----------------------------------------------------------

1|-----------------------15--15------------------------------
2|---------13---13-15~15--15--15-13--------------------------
3|---12-15----15-------------------15-14-15-14-12------------
4|-12--------------------------------------------------------
5|-----------------------------------------------------------
6|-----------------------------------------------------------

F#m                    Bm
Jamás imagine, que sucediera algo asi 
E
quien me lo hiba a decir 
  A                          F#m
con lo lejos que estabas tu de mi
    Bm           
tan solo en mis sueños 
       C#
fuiste mia.

Si estando junto a ti, no me parece realidad 
fuiste como una estrella
que yo nunca pude alcanzar
te alejabas mas y mas 
en la inmensidad.

ESTRIBILLO:
                Bm                      E
Estoy tan enamorado que aun no puedo creerlo 
                A                F#m
que estes a mi lado diciéndome te quiero
    Bm                     C#             F#m
besando mi boca, acariciando mi pelo, no me lo creo
                Bm                      E
Estoy tan enamorado que aun no puedo creerlo 
                A                F#m
que estes a mi lado diciéndome te quiero
    Bm                     C#             F#m
besando mi boca, acariciando mi pelo, no me lo creo.

1|-----------------------------------------------------------
2|---------15-13-15-15h16-15h16-16-16-16-16-15-13---13-------
3|---12-15----------------------------------------15---15-14-
4|-12--------------------------------------------------------
5|-----------------------------------------------------------
6|-----------------------------------------------------------

1|------------------------15--15-----------------------------
2|---------13---13-15~-15--15--15-13-------------------------
3|---12-15----15--------------------15-14-15-14-12-----------
4|-12--------------------------------------------------------
5|-----------------------------------------------------------
6|-----------------------------------------------------------

1|-------------------------------------------------15-14-----
2|--------13-------13---13-13-13-13-13----------13-----------
3|---13/15---15-14---------------------15-14-15--------------
4|-12--------------------------------------------------------
5|-----------------------------------------------------------
6|-----------------------------------------------------------

1|---------------------------------------------------------------
2|-15-13---------13-13--15-13------------------13----------------
3|-------15-14-15-------------15-14-12-14-14------15-14-12-14-12-
4|---------------------------------------------------------------
5|---------------------------------------------------------------
6|---------------------------------------------------------------

Me siento tan feliz, que no se como expresar 
lo que siento por ti
eres algo tan especial
creo estar en un sueño 
en el que no quiero despertar.

Si estando junto a ti, no me parece realidad 
fuiste como una estrella
que yo nunca pude alcanzar
te alejabas mas y mas 
en la inmensidad.

ESTRIBILLO

1|------------------------15-15-15-15-15-13---------------------------
2|---------15-13-15-15h16-------------------16-15-16-15-13---13-------
3|---12-15-------------------------------------------------15---15-14-
4|-12-----------------------------------------------------------------
5|--------------------------------------------------------------------
6|--------------------------------------------------------------------

1|---------------------13-13-13-13-13---------------------------------
2|---------13---13-15~----------------16-15-13-15-13------------------
3|---12-15----15------------------------------------15-14-15-14-12----
4|-12-----------------------------------------------------------------
5|--------------------------------------------------------------------
6|--------------------------------------------------------------------

1|-------------------------------------------------15-14----------------
2|--------13-------13---13-13-13-13-13----------13-------15-13----------
3|---13/15---15-14---------------------15-14-15----------------15-14----
4|-12----------------------------------------------------------------15-
5|----------------------------------------------------------------------
6|----------------------------------------------------------------------

1|----------------------------------------------------------------------
2|-15-13----------------------------------------------------------------
3|-------15-14---14-12~-------------------------------------------------
4|-------------15-------------------------------------------------------
5|----------------------------------------------------------------------
6|----------------------------------------------------------------------

ESTRIBILLO

            
            
Suggest correction
Creating personal tab
Creating personal tab
You can edit any tab online and save it as your Personal.

You can edit, replace or remove any tab part or add personal notes – all changes will be seen only by you.

Personal tabs can be accessed anytime from any device, even offline.
Learn more »
Give kudos to tab author, rate the tab!
1 2 3 4 5
comments
print report bad tab
guest
Wanna post a correction for this tab? Suggest correction