Oops, an error
Loading. Please wait.

No Me Lo Creo tab

version 2
version 2

Whole song

59 views 1 this week
no commentswrite comment
1 2 3 4 5
3 more votes to show rating
add to favorites
×
Save as Personal and add changes to this tab that will be seen only by you. Learn more ›
×
You can save this tab as Personal to edit and correct it or add notes. All changes will be seen only by you. Learn more »
launch autoscroll
font size
0
reset
how to read this tab
guitar tuner
edit
Autoscroll
slow
fast
+/-
esc
set tempo
stop
A continuacion los punteos enteros de la cancion, si quieren solo los 
acordes fijense en mi otra transcripcion.
No se fijen en la primera de todas, ya que está mal
(sin ánimo de ofender a nadie, simplemente no es correcta)

Intro

1|--------10---10h11-10h11-11-11-11-11-10----------------|
2|------11---13---------------------------13-11-10-------|
3|----12------------------------------------------12-10--| 
4|--12---------------------------------------------------|
5|-------------------------------------------------------|
6|-------------------------------------------------------|

1|----------------10--10-15-10-15-10---------------------|
2|-----10-13-11-13--------------------13-11-10-11-10-----|
3|10-12----------------------------------------------12--|
4|-------------------------------------------------------|
5|-------------------------------------------------------|
6|-------------------------------------------------------|


           Jamás imagine          que sucediera algo asi 

1|------------------11---11------8----8-------8----8------|
2|--------------------------------------------------------|
3|-------------3-3-8--7s8--8----5--4s5--5--4s5--4s5--5----|
4|-0-0-0-3-4-5--4-----------------------------------------|
5|--------------------------------------------------------|
6|--------------------------------------------------------|


    quien me lo iba a decir con lo lejos que estabas tu de mi
1|-----10---10-----11--10-------------15----13------6-8-6-------|
2|-----------------------------------------------6-8------8-6---|
3|---7---6s7--7-7s8---7---7---------12----10----8---------------|
4|--------------------------------------------------------------|
5|--------------------------------------------------------------|
6|--------------------------------------------------------------|


       tan solo en mis sueños     fuiste mia    nooooooooo

1|---8----8------8-----8-----------10----10-------------10---|
2|--------------------------------------------------8-10-----|
3|-5--4s5--5--4s5--4s5--5---------7---6s7---7---7-10---------|
4|-----------------------------------------------------------|
5|-----------------------------------------------------------|
6|-----------------------------------------------------------|


Si estando junto a ti, no me parece realidad 

1|-------------11---11------8----8-------8----8------|
2|---------------------------------------------------|
3|---3----3---8--7s8--8----5--4s5--5--4s5--4s5--5----|
4|-5--3h5--5-----------------------------------------|
5|---------------------------------------------------|
6|---------------------------------------------------|


fuiste como una estrella que yo nunca pude alcanzaaaaaar

1|-----10---10-----11--10-------------15---13------6-8-6-------|
2|----------------------------------------------6-8------8-6---|
3|---7---6s7--7-7s8---7---7---------12---10----8---------------|
4|-------------------------------------------------------------|
5|-------------------------------------------------------------|
6|-------------------------------------------------------------|


te alejabas mas y mas en la inmensidad.


1|------------------------------11-11-11-10-10--10-11-11-11-10--|
2|------13----13------13----13----------------------------------|
3|--------------------------------------------------------------|
4|-9s10---9s10---9s10---9s10------------------------------------|
5|--------------------------------------------------------------|
6|--------------------------------------------------------------|


Estoy tan enamorado que aun no puedo creerlo

1|---------------8---8-----8-----8-----------------|
2|-------------------------------------------------|
3|-------------5--4s5-5-4s5--4s5---5------2------2-|
4|--------------------------------------3---1-2-3--|
5|-------------------------------------------------|
6|-------------------------------------------------|


que estes A MI lado diciéndome te quiero          besando mi 

1|------------------------6---6-------6-8-6---------6-8-6-----|
2|----------------------3--2s3-3---6-8------8-6--6-8------8-6-|
3|----2-----2----2----------------8-------------8-------------|
4|-1h3--3--3--1h3--3------------------------------------------|
5|------------------------------------------------------------|
6|------------------------------------------------------------|


boca, acariciando mi pelooooooo, no me lo creo


1|--------------------------------------------------10---|
2|-----13----13----13----13-----------------------10-----|
3|--------------------------------------11--10-11--------|
4|-9s10--9s10--9s10---9s10-10---12-11-12-----------------|
5|-------------------------------------------------------|
6|-------------------------------------------------------|


Estoy tan enamorado que aun no puedo creerlo

1|------------------------8---8-----8-----8-----------------|
2|----------------------------------------------------------|
3|---3-----3---3--------5--4s5-5-4s5--4s5---5------2------2-|
4|--5-3h5-5-3h5-5--------------------------------3---1-2-3--|
5|----------------------------------------------------------|
6|----------------------------------------------------------|


que estes A MI lado diciéndome te quiero          besando mi 

1|------------------------6---6-------6-8-6---------6-8-6-----|
2|----------------------3--2s3-3---6-8------8-6--6-8------8-6-|
3|----2-----2----2----------------8-------------8-------------|
4|-1h3--3--3--1h3--3------------------------------------------|
5|------------------------------------------------------------|
6|------------------------------------------------------------|


boca, acariciando mi pelooooooo                                   no me lo creeeo

1|--------------------------------------------------10-13-12-11-10-|
2|-----13----13----13----13-----------------------10---------------|
3|--------------------------------------11--10-11------------------|
4|-9s10--9s10--9s10---9s10-10---12-11-12---------------------------|
5|-----------------------------------------------------------------|
6|-----------------------------------------------------------------|


1|--------10---10h11-10h11-11-11-11-11-10----------------|
2|------11---13---------------------------13-11-10-------|
3|----12------------------------------------------12-10--| 
4|--12---------------------------------------------------|
5|-------------------------------------------------------|
6|-------------------------------------------------------|

1|----------------10--10-15-10-15-10---------------------|
2|-----10-13-11-13--------------------13-11-10-11-10-----|
3|10-12----------------------------------------------12--|
4|-------------------------------------------------------|
5|-------------------------------------------------------|
6|-------------------------------------------------------|

1|------------------------------------------------------------15-14--|
2|----10-11h12-13-11-10-11h13---11h13-13-13-13-13-11-10-11-13--------|
3|-12----------------------------------------------------------------|
4|-------------------------------------------------------------------|
5|-------------------------------------------------------------------|
6|-------------------------------------------------------------------|

1|-10----------------------------------------10-----------------|
2|----13-11-10-----------13-11-10--10----------13-11-10-10h11---|
3|-------------12----------------12---11-11------------------12-|
4|---------------13-13------------------------------------------|
5|--------------------------------------------------------------|
6|--------------------------------------------------------------|


Luego repite desde (si estando junto a ti, no me parece realidad...)

y al terminar el estribillo hace:


1|--------10---10h11-11s15-15-15-15-15-13-11-10-11-10---------------|
2|------11---13---------------------------------------13-11-10--10--|
3|----12------------------------------------------------------12----| 
4|--12--------------------------------------------------------------|
5|------------------------------------------------------------------|
6|------------------------------------------------------------------|

1|----------------10--13-13-13-13-13-11-10---10-------------------|
2|-----10-13-11-13-------------------------13--13-11-10-11-10-----|
3|10-12-------------------------------------------------------12--|
4|----------------------------------------------------------------|
5|----------------------------------------------------------------|
6|----------------------------------------------------------------|

1|----------------------------------------------------------------|
2|-11-10-10h11-13-11--10-11h13--13-13-13-13-13-11-10-11-13--------|
3|----------------------------------------------------------------|
4|----------------------------------------------------------------|
5|----------------------------------------------------------------|
6|----------------------------------------------------------------|


1|-14s15-14-10----------10------------------|
2|------------13-10---10---13-11-10--10-----|
3|-----------------11--------------11---12--|
4|------------------------------------------|
5|------------------------------------------|
6|------------------------------------------|


AGUANTE LA NUEVA LUNA!!!
Cualquier duda, o para intercambiar tabs, al mail
-- El MaGo --
Suggest correction
Creating personal tab
Creating personal tab
You can edit any tab online and save it as your Personal.

You can edit, replace or remove any tab part or add personal notes – all changes will be seen only by you.

Personal tabs can be accessed anytime from any device, even offline.
Learn more »
Give kudos to tab author, rate the tab!
1 2 3 4 5
comments
print report bad tab
guest
Wanna post a correction for this tab? Suggest correction