Oops, an error
Loading. Please wait.

No Quiero Tu Amor chords

23 views 1 this week
no commentswrite comment
1 2 3 4 5
3 more votes to show rating
add to favorites
×
Save as Personal and add changes to this tab that will be seen only by you. Learn more ›
×
You can save this tab as Personal to edit and correct it or add notes. All changes will be seen only by you. Learn more »
launch autoscroll
font size
0
reset
transpose
0
reset
display chords
guitar tuner
edit
Autoscroll
slow
fast
+/-
esc
set tempo
stop
Strumming
There is no strumming pattern for this song yet. and get +5 IQ
intro:
1|--------------------10---------------------------|
2|------10-11-10---11----13--11-10-11-10-----------|
3|---12----------12----------------------12--------|          (X 2)
4|-12----------------------------------------------|
5|-------------------------------------------------|
6|-------------------------------------------------|


1|-------------------------------------------------|
2|--------11----------------10-13-10-11-10---------|
3|-----12----------------10----------------12------|          (X2)
4|--12-------10-10-10-10---------------------------|
5|-------------------------------------------------|
6|-------------------------------------------------|

Ahhhh. Sí, sí, La Nueva Luna, mi amor.
Ah, ah, ah, ah. Y goza.

Gm
Como a un niño tú me trataste, 
                            F
con tu ignorancia me enamoraste. 

Toda la vida me rechazaste 
                          Gm
y con tu orgullo me lastimaste. 

Gm
Yo te amaba, te idolatraba
                        F
y en mi mirada lo demostraba. 

En un papel te dibujaba 
                           Gm
y en mi corazón yo lo guardaba.

Cumbia!.

[#~~~estribillo~~~#]
F
Márchate, 
      Gm
no quiero tu amor 
F                  Gm   
porque jugaste con mi corazón. 
F
Márchate, 
     Gm
no quiero tu amor, 
F               G
ya no mereces perdón.
[#~~~#]

Ah, ah, ah, ah. Ahhh.
Báilalo. Ah, ah, ah, ah.

Era un niño 
y no me importaba, 
solo pedía que tú me amaras. 
Toda la vida me rechazabas 
y con tu orgullo me lastimabas. 
Hoy yo crecí y tú me buscas 
y yo te ignoro para que sufras. 
Ya no te amo ni te amaré, 
fuiste una ingrata, mala mujer. 

[REPITE ESTRIBILLO]

AGUANTE LA NUEVA LUNA!!!
Cualquier duda, consulta o sugerencia, al mail
-- El MaGo --

            
            
Suggest correction
Creating personal tab
Creating personal tab
You can edit any tab online and save it as your Personal.

You can edit, replace or remove any tab part or add personal notes – all changes will be seen only by you.

Personal tabs can be accessed anytime from any device, even offline.
Learn more »
Give kudos to tab author, rate the tab!
1 2 3 4 5
comments
print report bad tab
guest
Wanna post a correction for this tab? Suggest correction