Oops, an error
Loading. Please wait.

Sufres Igual Que Yo tab

21 views 6 this week
no commentswrite comment
1 2 3 4 5
3 more votes to show rating
add to favorites
×
Save as Personal and add changes to this tab that will be seen only by you. Learn more ›
×
You can save this tab as Personal to edit and correct it or add notes. All changes will be seen only by you. Learn more »
launch autoscroll
font size
0
reset
how to read this tab
guitar tuner
edit
Autoscroll
slow
fast
+/-
esc
set tempo
stop
intro:

1|------------------------------------------------------------|
2|----8-7-8-7-8----8-7-8-7-8-7--------------------------------|
3|-----------------------------9-7----------------------------|
4|-9------------9------------------7--------------------------|   ( A )
5|------------------------------------------------------------|
6|------------------------------------------------------------|

1|-------------8-7-8-7-8--8-7-8-7-8-7-------------------------|
2|----------5-----------5-------------8-8---------------------|
3|--------5---------------------------------------------------|   ( B )
4|----5-7-----------------------------------------------------|
5|--7---------------------------------------------------------|
6|------------------------------------------------------------|

repite ( a ) y luego 

1|-------------8-7-8-7-8--8-7-8-7-8-7-------7-7-7-5-----------|
2|----------5-----------5-------------7-7----------8-7-5------|
3|--------5---------------------------------------------------|   
4|----5-7-----------------------------------------------------|
5|--7---------------------------------------------------------|
6|------------------------------------------------------------|


   Em                             Am      
Lamento mucho que esto se haya terminaaado
        D                       G
sincerameeeente este final me duele taanto
          Am                     D
sabemos bien que lo mejor es separaaarnos
         B                    Em   B
seguir así, nos hace mucho mucho daño.

   Em                          Am      
Lamento mucho que tengamos, que alejaaarnos
            D                        G
pero tal vez, un dia Dios vuelva a juntaaarnos
          Am                            D
el sabe bien que yo te ame, y tu me has amaaado
         B                    Em   D
y quizas él solo sabrá en que fallaamos


estribillo:
G                   D      
Sieeempre te voy a querer
Am                  Em      
como se que vas a haceeerlo
                   D
Sufres igual que yo

G             D      
Tuu no podras olvidar
Am                 Em
aquellos lindos momeeentos
          D
Tampoco puedo yo


1|--------------7--5--5-5h7h8p7--7--5-------------------------|
2|--5--5--5--8------------------------8--7-----5--------------|
3|------------------------------------------7-----------------|
4|------------------------------------------------------------|
5|------------------------------------------------------------|
6|------------------------------------------------------------|

repite todo

al final hace un solo que no lo saque por falta de guitarra electrica en este momento
(se puede tocar igual pero no suena bien)


AGUANTE LA NUEVA LUNA!!!
Cualquier duda, o para intercambiar tabs, al mail
-- El MaGo --

            
            
Suggest correction
Creating personal tab
Creating personal tab
You can edit any tab online and save it as your Personal.

You can edit, replace or remove any tab part or add personal notes – all changes will be seen only by you.

Personal tabs can be accessed anytime from any device, even offline.
Learn more »
Give kudos to tab author, rate the tab!
1 2 3 4 5
comments
print report bad tab
guest
Wanna post a correction for this tab? Suggest correction