Oops, an error
Loading. Please wait.

Todo Me Recuerda A Ti tab

48 views 3 this week
no commentswrite comment
1 2 3 4 5
3 more votes to show rating
add to favorites
×
Save as Personal and add changes to this tab that will be seen only by you. Learn more ›
×
You can save this tab as Personal to edit and correct it or add notes. All changes will be seen only by you. Learn more »
launch autoscroll
font size
0
reset
how to read this tab
guitar tuner
edit
Autoscroll
slow
fast
+/-
esc
set tempo
stop
Hola soy mauro y les paso este punteo q suena bien....
Si hay un error no dejen d corregirlo!

e|-7------7------7------------7--12-7-----------9----7----
b|---10-9---10-9---------7-9----------7-------7-----------
g|-------------------7/9----------------8---8-------------
d|----------------------------------------9--------9----9-
a|--------------------------------------------------------
e|--------------------------------------------------------

e|----------------7---77---------------------7--||
b|------------------------10-9-----9-7-----7----||
g|------7----7-9----9------------------9-8------||
d|-77-9----9------------------------------------||
a|----------------------------------------------||
e|----------------------------------------------||

Repetir todo.

Bueno hasta la proxima...!!!!!!!

Mauro Osuna 2008

            
            
Suggest correction
Creating personal tab
Creating personal tab
You can edit any tab online and save it as your Personal.

You can edit, replace or remove any tab part or add personal notes – all changes will be seen only by you.

Personal tabs can be accessed anytime from any device, even offline.
Learn more »
Give kudos to tab author, rate the tab!
1 2 3 4 5
comments
print report bad tab
guest
Wanna post a correction for this tab? Suggest correction