Oops, an error
Loading. Please wait.

Un Poco Loco tab

70 views 1 this week
no commentswrite comment
1 2 3 4 5
3 more votes to show rating
add to favorites
×
Save as Personal and add changes to this tab that will be seen only by you. Learn more ›
×
You can save this tab as Personal to edit and correct it or add notes. All changes will be seen only by you. Learn more »
launch autoscroll
font size
0
reset
how to read this tab
guitar tuner
edit
Autoscroll
slow
fast
+/-
esc
set tempo
stop
Intro: arpegiado

(1)
D
Se que no estas
         G
pero se me hace
         A          D
que te veo a cada rato
             G
seran tus cosas
       A         D     Bm
o talvez algun retrato
           G              A
o simplemente algun recuerdo
  D
del pasado?.

Riff 1

repetir(1)

(2)
oigo una voz
y me parece que tu me
estarias llamando
sera que estoy un poco loco
o que te extraño
seguramente estoy asi
              D     A
porque aun te amo

Estribillo
          D
Un poco loco estoy por ti
           A
hablando solo por ahi
      G
con tus recuerdos
          A
con tus cosas
        D
tus retratos...

tu voz mil veces creo oir
se me hace que tu estas aqui
no puedo creer que te
hayas ido de mi lado
seguramente estoy asi
porque aun te amo


Riff 1
Riff 2

repetir(2)

Riff 1
Riff 2

Seguramente estoy asi?
Porque aun te amo?
****************************************************************
Riff 1:

e|-3/5----------------------------7/5------------------------|
B|-----7-8-10-10-8-8-7-7-5-5-3-3------7-8-10-10-8-8-7-7-5-5--|
G|-----------------------------------------------------------|

e|--7-9-10-10-9-10-9-7-7------------------------------------|
B|-7---------------------8-8-8-7-8-9-10-8-7-5-5-3-3---------|
G|----------------------------------------------------------|

Riff 2:

e|-3/5v--------------------7/9-7-5-7/5------------------------|
B|-----7-8-10-10-8-8-7-7-5-------------7-8-10-10-8-8-7-7-5-5--|
G|------------------------------------------------------------|


e|--7-9-10-10-9-10-9-7-7------------------------------------|
B|-7---------------------8-8-8-7-8-9-10-8-7-5-5-3-3---------|
G|----------------------------------------------------------|

*******************************************************************
Saludos!!..para mi amigo gordin!!...ayrton

            
            
Suggest correction
Creating personal tab
Creating personal tab
You can edit any tab online and save it as your Personal.

You can edit, replace or remove any tab part or add personal notes – all changes will be seen only by you.

Personal tabs can be accessed anytime from any device, even offline.
Learn more »
Give kudos to tab author, rate the tab!
1 2 3 4 5
comments
print report bad tab
guest
Wanna post a correction for this tab? Suggest correction