Oops, an error
Loading. Please wait.

Dos Copos De Nieve Bass Tab

49 views 1 this week
no commentswrite comment
1 2 3 4 5
3 more votes to show rating
add to favorites
launch autoscroll
font size
0
reset
guitar tuner
Autoscroll
slow
fast
+/-
esc
set tempo
stop
Help us to improve Ultimate-Guitar.com Take our survey!
×
Bonus track de Cometas por el cielo. Toda suya bajistas!


(intro)

G-|-------|
D-|-------|
A-|-4-4-4-| X2
E-|-------|

G-|-----------------------------------------------------------------|
D-|-----------------------------------------------------------------|
A-|-4-4-4-4-4-4-4-4-4-4-4-4-4-4-4-4-4-4-4-4-4-4-4-4-4-4-4-4-4-4-4-4-|
E-|-----------------------------------------------------------------|


G-|---4--6--2--4--0--2------------------|
D-|---------------------0--2--3--2--1---|
A-|------------------------------------4| x2
E-|-------------------------------------|

PARTE 1

Somos dos copos de nieve....

G-|-----------------------------------------------------------------|
D-|-----------------------------------------------------------------|
A-|-4-4-4-4-4-4-4-4-4-4-4-4-4-4-4-4-4-4-4-4-4-4-4-4-4-4-4-4-4-------|
E-|-------------------------------------------------------------4-4-|
                                        Volamos las antenas...
G-|-----------------------------------------------------------------|
D-|-----------------------------------------------------------------|
A-|-------------------------------------2-2-2-2-2-2-2-2-2-2-2-2-2-2-|
E-|-4-4-4-4-4-4-4-4-4-4-4-4-4-4-4-4-4-4-----------------------------|

G-|-----------------------------------------------------------------|
D-|-----------------------------------------------------------------|
A-|-2-2-2-2-2-2-2-2-2-2-2-2-2-2-2-2-2-2-2-2-4-4-4-4-4-4-4-4-4-4-4-4-|
E-|-----------------------------------------------------------------|

Sigo tu estela sin dejar...

G-|-----------------------------------------------------------------|
D-|-----------------------------------------------------------------|
A-|-4-4-4-4-4-4-4-4-4-4-4-4-4-4-4-4-4-4-4-4-4-4-4-4-4-4-4-4-4-------|
E-|-----------------------------------------------------------4-4-4-|
                                        Mi patria, mi bandera...
G-|-----------------------------------------------------------------|
D-|-----------------------------------------------------------------|
A-|-------------------------------------2-2-2-2-2-2-2-2-2-2-2-2-2-2-|
E-|-4-4-4-4-4-4-4-4-4-4-4-4-4-4-4-4-4-4-----------------------------|

G-|-----------------------------------------------------------------|
D-|-----------------------------------------4-4-4-4-4-4-4-4-4-4-4-4-|
A-|-2-2-2-2-2-2-2-2-2-2-2-2-2-2-2-2-2-2-2-2-------------------------|
E-|-----------------------------------------------------------------|

G-|-----------------------------------------------------------------|
D-|-----------------------------------------------------------------|
A-|-4-4-4-4-4-4-4-4-4-4-4-4-4-4-4-----------------------------------|
E-|-----------------------------------------------------------------|

CORO

Tú, tú me haz hecho tan...

G-|-----------------------------------------------------------------|
D-|-----------------------------------------------------------------|
A-|-----------------------------------------------------------------|
E-|-0-0-0-0-0-0-0-0-0-0--14-14-14-14-14-14h09-9-9-9-9-9-9-9-9-9-9-9-|

G-|-----------------------------------------------------------------|
D-|-----------------------------------------------------------------|
A-|-----------------------------------------------------------------|
E-|-14-14-14-14-14-14-14-14-14-14-5-5-5-5-5-5-5-5-5-5-7h0-----------|

G-|-----------|
D-|-----------|
A-|-4--4-4---4|
E-|---4-------|

Suenan las doce y otro año se va
se van los sueños como el gas del mejor champán...

G-|-----------------------------------------------------------------|
D-|-----------------------------------------------------------------|
A-|-------------------------------------2-2-2-2-2-2-2-2-2-2-2-2-2-2-|
E-|-4-4-4-4-4-4-4-4-4-4-4-4-4-4-4-4-4-4-----------------------------|

G-|-----------------------------------------------------------------|
D-|-----------------------------------------4-4-4-4-4-4-4-4-4-4-4-4-|
A-|-2-2-2-2-2-2-2-2-2-2-2-2-2-2-2-2-2-2-2-2-------------------------|
E-|-----------------------------------------------------------------|

G-|-----------------------------------------------------------------|
D-|-----------------------------------------------------------------|
A-|-4-4-4-4-4-4-4-4-4-4-4-4-4-4-4-----------------------------------|
E-|-----------------------------------------------------------------|

CORO

Tú, tú me haz hecho tan...

G-|-----------------------------------------------------------------|
D-|-----------------------------------------------------------------|
A-|-----------------------------------------------------------------|
E-|-0-0-0-0-0-0-0-0-0-0--14-14-14-14-14-14h09-9-9-9-9-9-9-9-9-9-9-9-|

G-|-----------------------------------------------------------------|
D-|-----------------------------------------------------------------|
A-|-----------------------------------------------------------------|
E-|-14-14-14-14-14-14-14-14-14-14-5-5-5-5-5-5-5-5-5-5-7h0-----------|

G-|-----------|
D-|-----------|
A-|-4--4-4---4|
E-|---4-------|

Puente

Fuimos dos gotas de agua en un manantial...

G-|-----------------------------------------------------------------|
D-|-----------------------------------------------------------------|
A-|-----------------------------------------------------------------|
E-|-2-2-2-2-2-2-2-2-2-2-2-5-5-5-5-5-5-5-5-9-9-9-9-9-9-9-9-9-9-9h2---|

Fuimos dos copos de nieve para volar...

G-|-----------------------------------------------------------------|
D-|-----------------------------------------------------------------|
A-|-----------------------------------------------------------------|
E-|-2-2-2-2-2-2-2-2-2-2-2-5-5-5-5-5-5-9-9-9-9-9-9-9-9-9-9-9h2-------|

Fuimos dos copas negras sin libertad

G-|-----------------------------------------------------------------|
D-|-----------------------------------------------------------------|
A-|-----------------------------------------------------------------|
E-|-2-2-2-2-2-2-2-2-2-2-2-5-5-5-5-5-5h0-0-0-0-0-0-0-0-0-0-4-4--4-4-4|

para escapar...

G-|-----------------------------------------------------------------|
D-|-----------------------------------------------------------------|
A-|-----------------------------------------------------------------|
E-|-4-4-4--4-4-4----------------------------------------------------|

CORO

Tú, tú me haz hecho tan...

G-|-----------------------------------------------------------------|
D-|-----------------------------------------------------------------|
A-|-----------------------------------------------------------------|
E-|-0-0-0-0-0-0-0-0-0-0--14-14-14-14-14-14h09-9-9-9-9-9-9-9-9-9-9-9-|


                       Tu, y tus pupilas...
G-|-----------------------------------------------------------------|
D-|-----------------------------------------------------------------|
A-|-----------------------------------------------------------------|
E-|-14-14-14-14-14-14-0-0-0-0-0-0-0-0-0-0-0-14-14-14-14-14-14-14-14-|

G-|-----------------------------------------------------------------|
D-|-----------------------------------------------------------------|
A-|-----------------------------------------------------------------|
E-|-14-14-14h9-9-9-9-9-9-9-9-9-9h14-14-14-14-14-14-14-14h5-5-5-5-5--|

G-|-------------|
D-|-------------|
A-|-------------|
E-|5-5-5-5-7h0--|

Final

Tú...

G-|-------------------------------|
D-|-------------------------------|
A-|-4---4-4--4---2-2-4---4-4------|
E-|---4--------5-------4-----5----|

G-|-----------------------------------------------------------------|
D-|-----------------------------------------------------------------|
A-|-4-4-4-4-4-4-4-4-4-4-4-4-4-4-4-4-4-4-4-4-4-4-4-4-4-4-4-4-4-4-4-4-|
E-|-----------------------------------------------------------------|


Cualquier error avisar a rufo_520@
Suggest correction
Give kudos to tab author, rate the tab!
1 2 3 4 5
comments
print report bad tab
guest
You may want to rate the tab now too:
select rating
Wanna post a correction for this tab? Suggest correction