Oops, an error
Loading. Please wait.

La Carta Tab

19 views 1 this week
no commentswrite comment
1 2 3 4 5
3 more votes to show rating
add to favorites
launch autoscroll
font size
0
reset
how to read this tab
guitar tuner
Autoscroll
slow
fast
+/-
esc
set tempo
stop
Help us to improve Ultimate-Guitar.com Take our survey!
×
LA CARTA

                      D                 Cm             G
Te escribo desde el silencio donde el miedo tiene escusa
                     D                     Cm                                 G
Donde el tiempo se pierde donde el odio no cura la bandera que de noche me ahoga.

Gm
La oscuridad me inunda
A7
Mis fuerzas se pierden
Cm
Sin nada mas que decirte
G
Me despido hasta siempre.

Bm                                     D
Cuando leas esta carta no cierres esos ojos
G
Que tienen la luz que me falta
Bm                 E           G
Que tienen la luz que me falta.

Bm                                     D
Cuando leas esta carta no cierres esos ojos
G
Que tienen la luz que me falta
Bm                 E           G
Que tienen la luz que me falta.


E----------------------------------------3-------
B--------------7--7-7-7-7-5-----4-3/4----3-------
G--4-4-4-4-5-7--------------7-5-------5--4-------
D------------------------------------------------
A------------------------------------------------
E------------------------------------------------

E------------------------------------------------
B----------7--7-7-7-7-5-----4-3/4----------------
G--4-4-5-7--------------7-5-------5--------------
D------------------------------------------------
A------------------------------------------------
E------------------------------------------------

Recuerdos llenan mi espera cubren todos mis sueños

Duermen sobre un piedra soledad que me ahogas deja ya de mirarme, dame tu mano.


Gm
La oscuridad me inunda
A7
Mis fuerzas se pierden
Cm
Sin nada mas que decirte
G
Me despido hasta siempre.

Bm                                     D
Cuando leas esta carta no cierres esos ojos
G
Que tienen la luz que me falta
Bm                 E           G
Que tienen la luz que me falta.

Bm                                     D
Cuando leas esta carta no cierres esos ojos
G
Que tienen la luz que me falta
Bm                 E           G
Que tienen la luz que me falta.
Suggest correction
Give kudos to tab author, rate the tab!
1 2 3 4 5
comments
print report bad tab
guest
You may want to rate the tab now too:
select rating
Wanna post a correction for this tab? Suggest correction