Oops, an error
Loading. Please wait.

La Chica Del Gorro Azul Tab

47 views 1 this week
no commentswrite comment
1 2 3 4 5
3 more votes to show rating
add to favorites
launch autoscroll
font size
0
reset
how to read this tab
guitar tuner
×
Best way to learn
"La Chica Del Gorro Azul"
Autoscroll
slow
fast
+/-
esc
set tempo
stop
INTRO Y PARTE INTERMEDIA

                            RE                            
E||----------------------|-------------------|----------------------|
B||-------------0--3--0--|--3----------------|-------------0--3-----|
G||----------2-----------|-------------------|----------2--------2--|
D||----------------------|-------------------|----------------------|
A||----------------------|-------------------|----------------------|
E||----------------------|-------------------|----------------------|


 FA#m                                            SOL               
--5------------------|-------------5----5--|------3------------0--|
-------2--2----------|----------2----------|-----------3--3-------|
---------------------|---------------------|----------------------|
---------------------|---------------------|----------------------|
---------------------|---------------------|----------------------|
---------------------|---------------------|----------------------|


  LA                     SIm                  LA                 
----------------------|------------------5--|------------------||
------3----2--3----0--|------------2--3-----|------------------||
----------------------|---------------------|------------------||
----------------------|---------------------|------------------||
----------------------|---------------------|------------------||
----------------------|---------------------|------------------||
Suggest correction
Give kudos to tab author, rate the tab!
1 2 3 4 5
comments
print report bad tab
guest
You may want to rate the tab now too:
select rating
Wanna post a correction for this tab? Suggest correction