Oops, an error
Loading. Please wait.

La Esperanza Debida Tab

79 views 3 this week
no commentswrite comment
1 2 3 4 5
3 more votes to show rating
add to favorites
×
Save as Personal and add changes to this tab that will be seen only by you. Learn more ›
×
You can save this tab as Personal to edit and correct it or add notes. All changes will be seen only by you. Learn more »
save as personal
new!
launch autoscroll
font size
0
reset
how to read this tab
guitar tuner
Autoscroll
slow
fast
+/-
esc
set tempo
stop
Espero que disfrutéis de esta canción tanto como la disfruto yo.
Esta canción esta tal y como la tocan en el DVD de la gira 2003
?Lo que te conté mientras te hacías la dormida?
La canción está escrita en la tonalidad de SI Mayor
aunque os recomiendo poner una cejilla en el segundo traste.

******SIMBOLOGÍA*******************************************
/ = ligado
m = en esta canción siempre toca la 5ª cuerda al aire dejando
que suene bien pero un poco mutado con la mano sobre el puente
M = mutado (siempre con distorsión overdrive)
* = Las notas con este símbolo es con distorsión
overdrive (lo utiliza básicamente en el estribillo)
***********************************************************

   LA                                             FA#m
E----------------------------------------------------------
B--------------------------------------------------7-------
G--------6----------6-6----------6----------6-6----6-------
D------7---7--------7---7------7---7--------7---7--7-------
A--0m---------0m------------0m---------0m------------------
E----------------------------------------------------------
   La noche está tan clara, no puedo perder nada,    espero

      LA
E----------------------------------------------------------
B----------------------------------------------------------
G-----------------6-----------6-6------------6-------------
D--------7/5-5---7-7----------7---7--------7---7-----------
A-----0m----7---0m-------0m-----------0m----------0m-------
E----------------------------------------------------------
  llegar,       Un viaje sin destino, A las estrellas pido,

       FA#m          DO#      RE            LA
E----------------------------------------------------------
B-------7-------------6---6---7----------------------------
G-6-6---6-------------6-----6-7----------------------------
D-7--7--7-------------6-6-----7----------------------------
A--------------------------------------------0m------------
E----------------------------------------------------------
           Les pido valor,      que no se despierte el mar,

       FA#m          DO#      RE                  MI
E---------------------------------------------------------0
B-------7-------------6---6---7-------------------------0--
G-6-6---6-------------6-----6-7-------------------1---1----
D-7--7--7-------------6-6-----7---------------------2------
A----------------------------------------------------------
E----------------------------------------------------------
           Les pido calor,      volverte a encontrar.


       LA                     MI                 FA#m
E----------------------------------------------------------
B-------5---------------------5------------------7---------
G-------6--*7/6-*7/6----------4--*6/4 *6/4-------6--*14/11-
D-------7---------------------6------------------7---------
A----------------------------------------------------------
E----------------------------------------------------------
   Cantaré,           hasta morir,         hasta ver - - -

                   RE                         LA
E----------------------------------------------------------
B------------------7-----7M-------------------5------------
G--*14/11----------7---7M---7M-9M-7M----------6--*7/6-*7/6-
D------------------7-7M-----------------------7------------
A----------------------------------------------------------
E----------------------------------------------------------
  - - - - te sonreír                  Dónde estés,

           MI                   RE5         REm       LA
E------------------------------------------------------0---
B----------5-------------------------5------6----------5---
G----------4--*6/4 *6/4------------7---7----7----------6---
D----------6--------------------7-----------7----------7---
A----------------------------------------------------------
E----------------------------------------------------------
   te cantaré,          sólo a ti.

(AHORA VIENE LA SEGUNDA ESTROFA
EL RITMO ES EL MISMO QUE EN LA PRIMERA.)

   LA                                      FA#m
2. No tengo más abrigo, que lo años contigo?(AQUÍ HACE UNA PEQUEÑA PAUSA)
         LA
me llevo tu paz. Las sombras del camino, los diablos
           FA#m                  DO#  RE
escondidos,     me han hecho escapar,    vigilan mi
LA       FA#m                    DO#  RE           MI
voluntad,      se la han dado al mar,    me queda cantar.

     LA          MI         FA#m       RE
CANTARÉ, HASTA MORIR, HASTA VERTE SONREÍR?
        LA           MI               RE5  REm          SOL
DONDE ESTÉS, TE CANTARÉ, SOLO, SOLO A TI?  SOLO, SOLO A TI?
     DO          SOL        LAm        FA
CANTARÉ, HASTA MORIR, HASTA VERTE SONREÍR?
         DO          SOL             FA
DONDE ESTÉS, TE CANTARÉ, SOLAMENTE A TI?
       DO          SOLcej            LAm        FA
Y CANTARÉ, HASTA MORIR, HASTA? HASTA VERTE SONREÍR?
        DO              SOLcej           FA
DONDE ESTÉS, YO TE CANTARÉ, SOLO, SOLO A TI,
             SOLcej     LA
SOLO, SOLO A TÍÍÍÍÍÍÍÍ?

 (Y ESTE ES EL FINAL)
E-------------------------------------------------------0--
B-------------------------------------------------------2--
G----6----6-6-----6-------------------------------------2--
D---7-7---7---7--7-7---7/5---5-7--7-7-5-4-2-0--b2-------2--
A-0------0------0----0-----7-----0-0-0-0-0-0------------0--
E-------------------------------------------------------0--

ACORDES UTILIZADOS EN EL CAMBIO DE TONALIDAD AL FINAL
EN EL ESTRIBILLO.

    DO    SOL   LAm    FA    SOLcej
E----8-----7------8-----0----10
B----8-----8-----10----10----12
G----9-----7------9----10----12
D---10-----9-----10----10----12
A------------------------------
E------------------------------

PARA CUALQUIER DUDA, SUGERENCIA, ALABANZA, CRÍTICAS
O FANS DE LA OREJA POR FAVOR ESCRIBANME.
(dufresne_19@
Suggest correction
Give kudos to tab author, rate the tab!
1 2 3 4 5
comments
print report bad tab
guest
Wanna post a correction for this tab? Suggest correction