Oops, an error
Loading. Please wait.

La Nia Que Llora En Tus Fiestas Bass Tab

401 views 1 this week
no commentswrite comment
1 2 3 4 5
please rate
add to favorites
launch autoscroll
font size
0
reset
guitar tuner
Autoscroll
slow
fast
+/-
esc
set tempo
stop
Help us to improve Ultimate-Guitar.com Take our survey!
×
Difficulty
novice
G --------------------------------------------------------------------------|
D --------------------------------------------------------------------------|
A -------0000-4444-55-22------0000-4444-/7777---9/-9/-----------------------|
E --2222-----------------2222-----------------------------------------------|


G --------------------------------------------------------------------------|
D --------------------------------------------------------------------------|
A -----------5555-2222----------2222-4444------5555------4444---------------|
E --22222222-----------22222222-----------2222------5555------2222----------|

G --------------------------------------------------------------------------|
D --------------------------------------------------------------------------|
A ------0000-4444-55-22------0000-4444-/7777------0000-7777-2222------0000--|
E -2222-----------------2222-----------------2222----------------2222-------|

G --------------------------------------------------------------------------|
D --------------------------------------------------------------------------|
A -------0000-4444-55-22------0000-4444-/7777------0000-4444-55-22----------|
E --2222-----------------2222-----------------2222--------------------------|


G ---------------------------------------------------------------------------|
D ---------------------------------------------------------------------------|
A ------0000-4444-/7777------4444------4444------4444------4444--------------|
E -2222-----------------2222------2222------2222------2222------2~~----------|
Suggest correction
Give kudos to tab author, rate the tab!
1 2 3 4 5
comments
print report bad tab
guest
You may want to rate the tab now too:
select rating
Wanna post a correction for this tab? Suggest correction