Oops, an error
Loading. Please wait.

Libro Tab

19 views 1 this week
no commentswrite comment
1 2 3 4 5
3 more votes to show rating
add to favorites
launch autoscroll
font size
0
reset
how to read this tab
guitar tuner
×
Best way to learn
"Libro"
Autoscroll
slow
fast
+/-
esc
set tempo
stop
INTRO
E||-----------------7---------------------------------|
B||--------------8-------8--12--10--8--10----8--------|
G||-----------7---------------------------------7-----|
D||--------9---------------------------------------9--|
A||--10-----------------------------------------------|
E||---------------------------------------------------|


                                                          
-----------------------10--13--10------------------------|
--------------8--11----------------11--------------------|
-------7--10---------------------------12----12--14--12--|
--8------------------------------------------------------|
---------------------------------------------------------|
---------------------------------------------------------|
 

                                                    
--12----9------------------------------------------|
------------10-7-------7--9--10--9--10----9--7-----|
------------------9-----------------------------9--|
---------------------------------------------------|
---------------------------------------------------|
---------------------------------------------------|


                                                
-----------------------------------------------|
--10----8----8---------------------------------|
----------------9----7---9----7----------------|
----------------------------------10----9--10--|
-----------------------------------------------|
-----------------------------------------------|


                                          
----------------------------------------||
----------------------------------------||
-----------------------------------7----||
--9----------------------9--10--9-------||
----------------------------------------||
----------------------------------------||
Suggest correction
Give kudos to tab author, rate the tab!
1 2 3 4 5
comments
print report bad tab
guest
You may want to rate the tab now too:
select rating
Wanna post a correction for this tab? Suggest correction