Oops, an error
Loading. Please wait.

Que Puedo Pedir Tab

4 views 1 this week
no commentswrite comment
1 2 3 4 5
3 more votes to show rating
add to favorites
launch autoscroll
font size
0
reset
how to read this tab
guitar tuner
Autoscroll
slow
fast
+/-
esc
set tempo
stop
Help us to improve Ultimate-Guitar.com Take our survey!
×
E-----------------------------------------
B------1--------6------1--------6---------
G--------2--------7------2--------7-------
D--1/3------8-8------3------8-8-----------
A-----------------------------------------
E-----------------------------------------

E-----------------------------------------
B------1-------6-------1------------------
G--------2-------7-------2-----3--5-------
D--1/3-----8-8-------3------4/5--7--------
A-----------------------------------------
E-----------------------------------------


No me hables de amor
Deja que expulse hoy mi rencor
tu fuistes u una vez
alguien que quise y tambien odie.

Mirame a mi
Mis ojos se van cerrando, se van cerrando

Dime que puedo pedir
No tienes, no tienes nada que me haga seguir
Te falta un shu shu o un que se yo
Te falta, te falta gracia cuando hablas de amor.

No se que decir
Tarde o temprano nos iba a ocurrir
pensa en lo que fue
hay un ahora y hay un despues.

Entiendeme
La noche esta aclarando, esta aclarando.

Dime que puedo pedir
No tienes, no tienes nada que me haga seguir
Te falta un shu shu o un que se yo
Te falta, te falta gracia cuando hablas de amor.
Suggest correction
Give kudos to tab author, rate the tab!
1 2 3 4 5
comments
print report bad tab
guest
You may want to rate the tab now too:
select rating
Wanna post a correction for this tab? Suggest correction