Oops, an error
Loading. Please wait.

Soledad Tab

119 views 1 this week
no commentswrite comment
1 2 3 4 5
3 more votes to show rating
add to favorites
launch autoscroll
font size
0
reset
how to read this tab
guitar tuner
×
Best way to learn
"Soledad"
Autoscroll
slow
fast
+/-
esc
set tempo
stop
Intro
Guitarra 1
e------------------------------------|
B------------------------------------|
G------8-------6---------8-------6---|
D--------6-6*8----8--------6-6*8---8-|X 2
A--6-6---------------6-6-------------|
E------------------------------------|

 
 guitarra 2
  D#
 tanto tiempo juntos y ahora te tienes q ir
 eramos muy niños cuando ahi te conoci
e------------------------------------|
B------------------------------------|
G------8-------6---------8-------6---|
D--------6-6*8----8--------6-6*8---8-|X 4
A--6-6---------------6-6-------------|
E------------------------------------|

G#
te veo jugar, y en silencio hablar
e------------------------------------|
B------------------------------------|
G------8-------6---------8-------6---|
D--------6-6*8----8--------6-6*8---8-|X 2
A--6-6---------------6-6-------------|
E------------------------------------|

 D#
Como me gustaba tu carita al vostezar
e------------------------------------|
B------------------------------------|
G------8-------6---------8-------6---|
D--------6-6*8----8--------6-6*8---8-|X 2
A--6-6---------------6-6-------------|
E------------------------------------|


C#m                             Fm                    
y en nuestro rincon         sigue aquel 
e----------4-------4----------------1--|
B--------5-----------5------------1----|
G------6---------------6--------1------|
D----6-------------------6----3--------|
A--4------------------------3----------|
E--------------------------------------|

             F7                 A#m
  sillon            donde me leias al dormir
e--------1~---------------------------------|
B----1~-----------10----------------6--6----|
G-1~-------------8-----------------6-----6--|
D--------------10-----------------8--------8|
A-------------8------------------8----------|
E-------------------------------------------|

        F#                       C#
 siempre estabas junto a mi en mi mente
e----------------------------------------|
B----------------------------------------|
G----------------------------------------|
D--------------------------------6-6-6-6-|
A---------4-4-4-4-4-4-4-4-4-4-4--4-4-4-4-|
E---------2-2-2-2-2-2-2-2-2-2-2----------|

                    F#              F               
 revolviendo todo y esperando verme sonrerir
e-------------------------------------------|
B-------------------------------------------|
G-------------------------------------------|
D-6-6-6-6-6-6-6-6-6-------------------------|
A-4-4-4-4-4-4-4-4-4-4-4-4-4-4-4-4-4-10-10-10|
E-------------------2-2-2-2-2-2-2-2-8--8--8-|

         A#       F               Gm-D 
OH soledad, dime si algun dia habrá
      G                       Cm
entre tu y el amor buena amistad
F        D#           A#
vuelve conmigo a dibujar 
                   F        D#           A#
las olas del mar, dame tu mano una vez mas

F---F#


e------------------------------------|
B------------------------------------|
G------8-------6---------8-------6---|
D--------6-6*8----8--------6-6*8---8-|
A--6-6---------------6-6-------------|
E------------------------------------|
 
  D#
escapabamos de todo y me invitabas a pensar
me ayudabas con tus juegos a pintar la realidad
e------------------------------------|
B------------------------------------|
G------8-------6---------8-------6---|
D--------6-6*8----8--------6-6*8---8-|X 4
A--6-6---------------6-6-------------|
E------------------------------------|

G#
siempre fuiste fiel, transparente fe
e------------------------------------|
B------------------------------------|
G------8-------6---------8-------6---|
D--------6-6*8----8--------6-6*8---8-|X 2
A--6-6---------------6-6-------------|
E------------------------------------|

 D#
lo smayores dicen q de ti me enamore
e------------------------------------|
B------------------------------------|
G------8-------6---------8-------6---|
D--------6-6*8----8--------6-6*8---8-|X 2
A--6-6---------------6-6-------------|
E------------------------------------|

C#m                             Fm                    
y en nuestro rincon         sigue aquel 
e----------4-------4----------------1--|
B--------5-----------5------------1----|
G------6---------------6--------1------|
D----6-------------------6----3--------|
A--4------------------------3----------|
E--------------------------------------|

             F7                 A#m
  sillon            donde me leias al dormir
e--------1~---------------------------------|
B----1~-----------10----------------6--6----|
G-1~-------------8-----------------6-----6--|
D--------------10-----------------8--------8|
A-------------8------------------8----------|
E-------------------------------------------|

        F#                       C#
 siempre estabas junto a mi en mi mente
e----------------------------------------|
B----------------------------------------|
G----------------------------------------|
D--------------------------------6-6-6-6-|
A---------4-4-4-4-4-4-4-4-4-4-4--4-4-4-4-|
E---------2-2-2-2-2-2-2-2-2-2-2----------|

                    F#              F               
 revolviendo todo y esperando verme sonrerir
e-------------------------------------------|
B-------------------------------------------|
G-------------------------------------------|
D-6-6-6-6-6-6-6-6-6-------------------------|
A-4-4-4-4-4-4-4-4-4-4-4-4-4-4-4-4-4-10-10-10|
E-------------------2-2-2-2-2-2-2-2-8--8--8-|

         A#       F               Gm-D 
OH soledad, dime si algun dia habrá
      G                       Cm
entre tu y el amor buena amistad
F        D#           A#
vuelve conmigo a dibujar 
                   F        D#           A#
las olas del mar, dame tu mano una vez mas


         A#       F               Gm-D 
OH soledad, dime si algun dia habrá
      G                       Cm
entre tu y el amor buena amistad
F        D#           A#
vuelve conmigo a dibujar 
                   F        D#           A#
las olas del mar, dame tu mano una vez mas

  F             D#           A#
 uh shalala uh sha lala
e---------------------------------------------|
B---------------------------------------------|
G---------------3-3-3-3-3-3-3-----------------|
D---------------1-1-1-1-1-1-1-3-3-3-3-3-3-3-3-|
A-3-3-3-3-3-3-3---------------1-1-1-1-1-1-1-1-|X3
E-1-1-1-1-1-1-1-------------------------------|

en la tercera no se toca el ultimo A

eso es todo, espero q la disfruten y si 
se tienen alguna duda mandenmelo a mi 
correo  jcd_007@ 
suerte

Por favor si van a usar este archivo, en algún 
otro lugar, por favor avisenme, no sean 
*****gandallas******* jajaja
Suggest correction
Give kudos to tab author, rate the tab!
1 2 3 4 5
comments
print report bad tab
guest
You may want to rate the tab now too:
select rating
Wanna post a correction for this tab? Suggest correction