Oops, an error
Loading. Please wait.

Tantas Cosas Que Contar Tab

40 views 1 this week
no commentswrite comment
1 2 3 4 5
2 more votes to show rating
add to favorites
×
Save as Personal and add changes to this tab that will be seen only by you. Learn more ›
×
You can save this tab as Personal to edit and correct it or add notes. All changes will be seen only by you. Learn more »
save as personal
new!
launch autoscroll
font size
0
reset
how to read this tab
guitar tuner
Autoscroll
slow
fast
+/-
esc
set tempo
stop
Intro
e-----------------|
B-----7-----7-----|
G---8---8-9---9-8-|
D-9---------------|X2
A-----------------|
E-----------------|


siento q hoy no puedo mas 
                te busco y solo encuentro mar
e----------------------------------|
B-----7-----7---------7-----7------|
G---8---8-9---9-8---8---8-9---9-8--|
D-9---------------9----------------|
A----------------------------------|
E----------------------------------|

necesito verte y hablar
e----------------------------------|
B-----7-----7---------9------9-----|
G---8---8-9---9-7---9---9-11---11-9|
D-9---------------9----------------|
A----------------------------------|
E----------------------------------|

se q estas lejos de aqui
                    sonriendo sin reir
e------------------------------------|
B-----9------9----------9------9-----|
G---9---9-11---11-9---9---9-11---11-9|
D-9-----------------9----------------|
A------------------------------------|
E------------------------------------|

escribiendo algo para mi 
e----------------------------------|
B-----7-----7---------7-----7------|
G---8---8-9---9-8---8---8-9---9-8--|
D-9---------------9----------------|
A----------------------------------|
E----------------------------------|

una noche fui a buscar
                 en tus brazos el lugar
e----------------------------------|
B-----7-----7---------7-----7------|
G---8---8-9---9-8---8---8-9---9-8--|
D-9---------------9----------------|
A----------------------------------|
E----------------------------------|
 
q hace años no supe encontrar
e----------------------------------|
B-----7-----7---------9------9-----|
G---8---8-9---9-7---9---9-11---11-9|
D-9---------------9----------------|
A----------------------------------|
E----------------------------------|

 te he escuchado caminar
                    te siento pero tu no estas
e------------------------------------|
B-----9------9----------9------9-----|
G---9---9-11---11-9---9---9-11---11-9|
D-9-----------------9----------------|
A------------------------------------|
E------------------------------------|

mirate y mira ahora hacia atras
e----------------------------------|
B-----7-----7---------7-----7------|
G---8---8-9---9-8---8---8-9---9-8--|
D-9---------------9----------------|
A----------------------------------|
E----------------------------------|

 G#m
has venido a despertar
  F#
mi alegria y felicidad
  E
tengo tantas cosas q contar

 B    E           B
ven vuelvete a dormir
  E             G#m
vuelve a descubrir
       B            F#
todo aquello junto a mi


q de dudas te servi q de cosas me perdi
e----------------------------------|
B----------------------------------|
G----------------------------------|
D----------------------------------|
A----------------------------------|
E----------------------------------|

q de veces me has hecho reir
e----------------------------------|
B---------------------9------9-----|
G-------------------9---9-11---11-9|
D-----------------9----------------|
A----------------------------------|
E----------------------------------|

Cuanto tiempo sin llorar
                   sin sentir sin escuchar
e------------------------------------|
B-----9------9----------9------9-----|
G---9---9-11---11-9---9---9-11---11-9|
D-9-----------------9----------------|
A------------------------------------|
E------------------------------------|

sin tener algo de q hablar
e----------------------------------|
B-----7-----7---------7-----7------|
G---8---8-9---9-8---8---8-9---9-8--|
D-9---------------9----------------|
A----------------------------------|
E----------------------------------|

tu sentado frente a mi
                  miro y solo veo en ti
e----------------------------------|
B-----7-----7---------7-----7------|
G---8---8-9---9-8---8---8-9---9-8--|
D-9---------------9----------------|
A----------------------------------|
E----------------------------------|
 
todo lo q queda por vivir
e----------------------------------|
B-----7-----7---------9------9-----|
G---8---8-9---9-7---9---9-11---11-9|
D-9---------------9----------------|
A----------------------------------|
E----------------------------------|

vi en tus ojos sin querer
                   tantas ganas de querer
e------------------------------------|
B-----9------9----------9------9-----|
G---9---9-11---11-9---9---9-11---11-9|
D-9-----------------9----------------|
A------------------------------------|
E------------------------------------|

q solo quiero verlos otra vez
e----------------------------------|
B-----7-----7---------7-----7------|
G---8---8-9---9-8---8---8-9---9-8--|
D-9---------------9----------------|
A----------------------------------|
E----------------------------------|

 G#m
has venido a despertar
  F#
mi alegria y felicidad
  E
tengo tantas cosas q contar

 B    E           B
ven vuelvete a dormir
  E             G#m
vuelve a descubrir
       B            F#
todo aquello junto a mi


 G#m
has venido a despertar
  F#
mi alegria y felicidad
  E
tengo tantas cosas q contar

 B    E           B
ven vuelvete a dormir
  E             G#m
vuelve a descubrir
       B            F#
todo aquello junto a mi


ven  vuelvete a dormir
e---------------------|
B---------------------|
G-9~---9--8-6---4-----|
D-------------------6-|
A---------------------|
E---------------------|


vuelve a descubrir 
e---------------------|
B---------------------|
G-9--8-6---4----------|
D--------------4------|
A---------------------|
E---------------------|

        B            F# 
todo aquello junto a mi

e-----------------------------|
B-----------------------------|
G-----------------------------|
D-9^(10)(10)--9~--9-8-6-------|
A-----------------------9-7-6-|
E-----------------------------|

                 F#       B
e-----------------------------|
B-----------------------------|
G-----------------------------|
D---9-8-6---------------------|
A-6-------9-7-4~~~------------|
E-----------------------------|


e-----------------|
B-----7-----7-----|
G---8---8-9---9-8-|
D-9---------------|X3
A-----------------|
E-----------------|


eso es todo, espero q la disfruten y si 
se tienen alguna duda mandenmelo a mi 
correo  jcd_007@ 
suerte

Por favor si van a usar este archivo, en algún 
otro lugar, por favor avisenme, no sean 
*****gandallas******* jajaja
Suggest correction
Give kudos to tab author, rate the tab!
1 2 3 4 5
comments
print report bad tab
guest
Wanna post a correction for this tab? Suggest correction