Oops, an error
Loading. Please wait.

V.s.o. Tab

43 views 1 this week
no commentswrite comment
1 2 3 4 5
3 more votes to show rating
add to favorites
launch autoscroll
font size
0
reset
how to read this tab
guitar tuner
Autoscroll
slow
fast
+/-
esc
set tempo
stop
Bueno esta es mi primera transcripcion y espero que les guste.
Les recomiendo usar el ritmo de ranchera, con un solo rasgeo.
Ah!, los requintos y arreglos de otros instrumentos en la cancion
los trate de imitar para ser tocados con una segunda guitarra.
ecuchen la cancion.
bueno hay les va esta rola:


-INTRO:
                           Am
e---------------------------------------
B)--5-4-3-1-4-3-1-----------1------1----
G)--------------------0h1h2--0h1h2------
D)--------------------------------------
A)--------------------------------------
E)--------------------------------------


-ESTROFA 1:

Am                             Em7
Al igual que un gas invade un laberinto

                    e)-----------------------------------
                    B)-------------5-4-5-4-5-6-5-0-------
                    G)-----------------------------------
                    D)-----------------------------------
                    A)-----------------------------------
                    E)-----------------------------------


                               Am
La nostalgia se hizo con mi corazón
                                   Dm
Y aunque a pares tengo ojos tengo oídos
                  E7
Sin ti pierden sentido,
                  Am
El sonido y el color.

          e-------------------------
          B)-----------1-------1----
          G)------0h1h2--0h1h2------
          D)------------------------
          A)------------------------
          E)------------------------
 1 rasgeo Am, silencio (2 guitarras)


-ESTROFA 2:


(La otra guitarra empieza con mismos tonos
 y un ritmo de 4 rasgeos abajo seguido rapidamente de un apageo)

                              E7
No me quito el vicio de esperarte en casa
                            Am
Apoyando mi cabeza en el cristal

                        e-------------------------
                        B)----8-7-6-0-5-4/5-------
                        G)------------------------
                        D)------------------------
                        A)------------------------
                        E)------------------------


                                   Dm
Y cuando empaño de un suspiro la ventana
                  E7
Dibujo un tres en raya
                    Am
Que he vuelto a empatar.

                  e-------------------
                  B)----5-4-3-1-------
                  G)------------------
                  D)------------------
                  A)------------------
                  E)------------------


(Aqui se uniria la bateria junto con el piano)

-Coro:


C
Si algún día nos cruzamos
      Em
No respondas, ni hagas caso
        A7                      Dm
A los subtítulos que bajo mi sonrisa sabes ver
       C           Dm
Yo te diré que voy tirando
  E7              Am
Negaré que estoy llorando
    Dm              E7         Am
Te diré que el tiempo todo lo curó

     Rasgeo, silencio


-Estrofa 3:

Am                               E7
No consigo hacer nada sin darme cuenta

                                       E)----0-8-7-5-0h5---
                                       B)------------------
                                       G)------------------
                                       D)------------------
                                       A)------------------
                                       E)------------------


Am
Es el precio de aprender a no llorar
                                          Dm
Y es que aunque a veces nada indique que compensa

                                            E)----0-10-0-9-0-7-0-5------
                                            B)---------------------5-2/5
                                            G)--------------------------
                                            D)--------------------------
                                            A)--------------------------
                                            E)--------------------------


             E7                      Am
Yo me niego a dar la vuelta y hacerme menor de edad

                          E)--------------------------------------
                          B)----0---0-5-3-1-0------------5-4-3-1--
                          G)------------------2-------------------
                          D)--------------------------------------
                          A)--------------------------------------
                          E)--------------------------------------


-Coro:


C
Si algún día nos cruzamos
      Em
No respondas, ni hagas caso
        A7                      Dm
A los subtítulos que bajo mi sonrisa sabes ver
       C           Dm
Yo te diré que voy tirando
  E7              Am
Negaré que estoy llorando
    Dm              E7         Am
Te diré que el tiempo todo lo curó


C
Y en realidad nunca te olvido
       Em
Fuiste mi único camino
      A7
Tu sonrisa un buen motivo
      Dm
Para ser alguien mejor
               C
Y aunque te cuenten
          Dm
Que me vieron
    E7              Am
De princesa en algún cuento
       Dm
No hace falta que te diga
E7                      Am
que tan solo cuentos son


Espero que les guste este poema de cancion.
se la dedico a mi amiga especial Monica,
la Chonpekas que siempre hace que me ponga "rojo".
un saludo a toda la gente buena de chihuahua, y sobretodo
un saludo a todas las chavas bien buenas de mi chihuahua chihuahua!!!!!
Suggest correction
Give kudos to tab author, rate the tab!
1 2 3 4 5
comments
print report bad tab
guest
Wanna post a correction for this tab? Suggest correction