Oops, an error
Loading. Please wait.

Viejo Cuento Tab

22 views 1 this week
no commentswrite comment
1 2 3 4 5
3 more votes to show rating
add to favorites
launch autoscroll
font size
0
reset
how to read this tab
guitar tuner
×
Best way to learn
"Viejo Cuento"
Autoscroll
slow
fast
+/-
esc
set tempo
stop
VIEJO CUENTO

E------3---------3---------3--------3----3-3-----------------
B----4--4------4--4-0----4--4-----4--------------------------
G---0-0--0----0-0-------0-0--3---0-0-------------------------
D------------------------------------------------------------
A--3------3--2--------1---------0------0-1-2-----------------
E------------------------------------------------------------

E------3---------3---------3--------3----------3-------------
B----4--4------4--4-0----4--4-----4--4-4----3----------------
G---0-0--0----0-0-------0-0--3---0-0--0----------------------
D--------------------------------------------5----5-3--3-----
A--3------3--2--------1---------0----------5---------5--5-3--
E-----------------------------------------3------------------


Cm          Gm         Fm
Comenzó meciéndonos el mar
Cm          Gm      Fm
el mundo dormía, ahora
Cm          Gm         Fm
en un banco encontré el cuento
Cm          Gm         Fm
con el que ríes, amas y lloras.

Cm      Gm         Fm
Todos estos fríos años
Cm        Gm         Fm
al abrigo de un saludo
Cm       Gm       Fm
creíamos en algo raro
Cm          Gm         Fm
que aún hoy descansa mudo.
C       Gm        F
Que aún hoy descansa,
Fm         Gm
descansa mudo.


G#     Fm         Cm      D#
La silueta que el sol dibujó
G#             G
trajo un vacío de sombras,
G#     Fm         Cm      D#
la silueta que el sol dibujó
G#             G
nos descubrió tantas cosas.

Algunas noches a las 11
sale del puerto en tren,
un sueño que lleva gorra
y que la agita para no volver.

Pero esta vieja historia
tiene una hoja en blanco,
esa que habla de ti.
la que te hace llorar tanto.
La que te hace llorar tanto.

La silueta que el sol dibujó
trajo un vacío de sombras,
y al regreso de las flores, yo,
mi calma dejó de estar sola.
Suggest correction
Give kudos to tab author, rate the tab!
1 2 3 4 5
comments
print report bad tab
guest
You may want to rate the tab now too:
select rating
Wanna post a correction for this tab? Suggest correction