Oops, an error
Loading. Please wait.

Calle Soledad tab

13 views 3 this week
no commentswrite comment
1 2 3 4 5
3 more votes to show rating
add to favorites
×
Save as Personal and add changes to this tab that will be seen only by you. Learn more ›
×
You can save this tab as Personal to edit and correct it or add notes. All changes will be seen only by you. Learn more »
launch autoscroll
font size
0
reset
how to read this tab
guitar tuner
edit
Autoscroll
slow
fast
+/-
esc
set tempo
stop
   Que onda banda pues a qui con el intro de una cancion bien shida
de la parranda
hay como olvidar aquella rola

Bueno espero que les sirva

  el intro comienza en Si mayor o ¨B¨
 pero no lo van  hacer debajo de G si no que lo van a transportar
 hasta el septimo traste osea asi:

        B

    E-- 7
    A-- 9
    D-- 9     se toca alrededor de 5 veces
    G-- 8
    B-- 7
    E-- 7


 de ahi pasamos a esto

      F#
    E----------4-0------------------------
    A---4--2------------------------------

 y luego

    E----------------------------------------------------------------
    A----0-3---0-3---0-3---------------------------------------------
    D--------2-----2-----2-3-2-3-2-3-0-3---0-3---0-3-----------------
    G------------------------------------2-----2-----2-3-2-3-2-3-----


    E----------------------------------------------------------------
    A--------------------------------------3-2-0---------------------
    D----------------------------------3-2---------------------------
    G---0-3---0-3---0-3-------------3-2------------------------------
    b-------3-----3-----3-4-3---3-2----------------------------------
    e----------------------------------------------------------------

      B                        C#m
    Quiero olvidarme de que (hay de que?)
     F#7               G#m
    no sientes nada por mi
     B              G#m         C#m                F#7
    voy a tomar y tomar y tomar hasta mi nombre olvidar

    B                C#m
    Tu mirada es la ke
    F#7             G#m
    domina todo mi ser

    B                     G#m
    el calor de tus besos tus brazos
    C#m                 F#7
    yo no los kiero perder

    B                   C#m
    y si te vaz no kiero ni pensar
    F#7                  G#m
    lo ke konmigo va a pasar

    B           G#m
    voy a morir ,
    C#m                     F#7
    muy lentamente,voy a morir

    B                         C#m
    y si te vaz sera el fin de mi vida
    F#7                          G#m
    tanto dolor no se puede aguantar

    B           G#m
     voy a morir
    C#m                       F#7
     muy lentamente,voy a morir

...¡¡¡¡¡¡y sigue la parranda!!!!!...

    B-C#m-F#7-G#m

    E----------------------------------------------------------------
    A----0-3---0-3---0-3---------------------------------------------
    D--------2-----2-----2-3-2-3-2-3-0-3---0-3---0-3-----------------
    G------------------------------------2-----2-----2-3-2-3-2-3-----


    E----------------------------------------------------------------
    A--------------------------------------3-2-0---------------------
    D----------------------------------3-2---------------------------
    G---0-3---0-3---0-3-------------3-2------------------------------
    b-------3-----3-----3-4-3---3-2----------------------------------
    e----------------------------------------------------------------

    pues de ahi se repiten los acordes


      quiero olvidarme de que (hay de que????)
      no sientes nada x mi
      voy a tomar y tomar y tomar asta mi nombre olvidar
      juraste que me ibas a amar
      pensar que algun dia tu me querras
      que voy persiguiendo tu sombra
      en la calle de la soledad...

      y si te vaz no kiero ni pensar lo ke konmigo
      va a pasar
      voy a morir ,muy lentamente,voy a morir
      y si te vaz sera el fin de mi vida
      tanto dolor no se puede aguantar
      voy a morir ,muy lentamente,voy a morir

       ...¡¡¡y sigue la parranda!!!!!...

     Espero que les sirva
     Sobres un saludo a la DNT aya en Tlaxcala
     y pues que siga la parranda

            
            
Suggest correction
Creating personal tab
Creating personal tab
You can edit any tab online and save it as your Personal.

You can edit, replace or remove any tab part or add personal notes – all changes will be seen only by you.

Personal tabs can be accessed anytime from any device, even offline.
Learn more »
Give kudos to tab author, rate the tab!
1 2 3 4 5
comments
print report bad tab
guest
Wanna post a correction for this tab? Suggest correction