Oops, an error
Loading. Please wait.

Casi Llorando tab

23 views 1 this week
no commentswrite comment
1 2 3 4 5
3 more votes to show rating
add to favorites
×
Save as Personal and add changes to this tab that will be seen only by you. Learn more ›
×
You can save this tab as Personal to edit and correct it or add notes. All changes will be seen only by you. Learn more »
launch autoscroll
font size
0
reset
how to read this tab
guitar tuner
edit
Autoscroll
slow
fast
+/-
esc
set tempo
stop
Acordes

     A   Gm A#m 
e|---5---3---5---|
B|---5---3---5---|
G|---6---3---5---|
D|---7---5---7---|
A|---7---5---7---|
E|---5---3---5---|

Intro
         A          Gm           A          A#m
e|---5555-5555---3333-3333---5555-5555---5555-5555-5---|
B|---5555-5555---3333-3333---5555-5555---5555-5555-5---|
G|---6666-6666---3333-3333---6666-6666---5555-5555-5---|
D|---7777-7777---5555-5555---7777-7777---7777-7777-7---|
A|---7777-7777---5555-5555---7777-7777---7777-7777-7---|
E|---5555-5555---3333-3333---5555-5555---5555-7777-7---|

A  Gm  A  A#m
A  Gm  A  A#m
A  Gm  A  A#m
A  Gm  A  A#m

A               Gm    A          A#m
Estoy viendo la luna en un beso de tequila,
A                Gm     A          A#m
ahi es donde me pierdo donde curo mis heridas.
A              Gm  A             A#m
Hoy estoy bebiendo el secreto de las flores,
A               Gm  A          A#m
como luna de hielo por quien alegre muero.

A  Gm  A  A#m
A  Gm  A  A#m
A  Gm  A  A#m
A  Gm  A  A#m

     A   Gm   A   A#m 
e|---5---33---5---55---|
B|---5---33---5---55---|
G|---6---33---6---55---|
D|---7---55---7---77---|
A|---7---55---7---77---|
E|---5---33---5---55---|

A°                             Gm°
Casi llorando voy cabizbajo, casi llorando en ti pensando,
A°                              A#m°
casi llorando pienso no verte, casi llorando veo la muerte,
A°                               Gm°
casi llorando, muerte pensando, vacio sintiendo, sintiendo no verte,
A°                             A#m°
casi llorando voy caminando, tomado tomado en ti pensando,
A°                               Gm°
casi llorando pienso no verte, tomado tomado veo la muerte.

( Solo de bajo y metales )

A  Gm  A  A#m
A  Gm  A  A#m

A                     Gm                 A
El miedo y la muerte, el rio de mi vida nadie se da cuenta,
A#m                      A                    G
solo el llanto que mira, voy a estar dormido, mas del tiempo del que es mio,
A                       A#m
ya no puedo levantarme, ya no puedo despertar.

      A      Gm     A     A#m 
e|---5555---3333---5555---5555---|
B|---5555---3333---5555---5555---|
G|---6666---3333---6666---5555---|          X
D|---7777---5555---7777---7777---|          2
A|---7777---5555---7777---7777---|
E|---5555---3333---5555---5555---|

Pum Pum !!!!

      A      Gm     A     A#m 
e|---5555---3333---5555---5555---|
B|---5555---3333---5555---5555---|
G|---6666---3333---6666---5555---|         
D|---7777---5555---7777---7777---|        
A|---7777---5555---7777---7777---|
E|---5555---3333---5555---5555---|

Pum Pum !!

      A      Gm     A     A#m 
e|---5555---3333---5555---5555---|
B|---5555---3333---5555---5555---|
G|---6666---3333---6666---5555---|          
D|---7777---5555---7777---7777---|          
A|---7777---5555---7777---7777---|
E|---5555---3333---5555---5555---|

Pum Pum !!

      A      Gm     A     A#m 
e|---5555---3333---5555---5555---|
B|---5555---3333---5555---5555---|
G|---6666---3333---6666---5555---|          
D|---7777---5555---7777---7777---|          
A|---7777---5555---7777---7777---|
E|---5555---3333---5555---5555---|

Pum Pum !!

      A      Gm     A     A#m 
e|---5555---3333---5555---5555---|
B|---5555---3333---5555---5555---|
G|---6666---3333---6666---5555---|          
D|---7777---5555---7777---7777---|          
A|---7777---5555---7777---7777---|
E|---5555---3333---5555---5555---|

Y SOMOS LA PARRANDA !!!!!

A  Gm  A  A#m
A  Gm  A  A#m
A  Gm  A  A#m
A  Gm  A  A#m

A                     Gm  A                   A#m
Confundido por conocerte, borracho de nuevo estoy,
A                   Gm  A                     A#m
sentado en este pueblo con la mano en el corazon. ¡ Y Dice !

A  Gm  A  A#m x12

Distorcion y ritmo Punk
A  Gm  A  A#m x2

Outro
     A  Gm   A  A#m     A(Dejenlo sonar)
e|---5---3---5---5------5|
B|---5---3---5---5------5|
G|---6---3---6---5------6|
D|---7---5---7---7------7|
A|---7---5---7---7------7|
E|---5---3---5---5------5|

° Raspar hacia abajo una vez nada mas
Dedicada para Mariel Cuellar

            
            
Suggest correction
Creating personal tab
Creating personal tab
You can edit any tab online and save it as your Personal.

You can edit, replace or remove any tab part or add personal notes – all changes will be seen only by you.

Personal tabs can be accessed anytime from any device, even offline.
Learn more »
Give kudos to tab author, rate the tab!
1 2 3 4 5
comments
print report bad tab
guest
Wanna post a correction for this tab? Suggest correction