Oops, an error
Loading. Please wait.

Better Off Dead Tab

1,876 views 1 this week
no commentswrite comment
1 2 3 4 5
please rate
add to favorites
launch autoscroll
font size
0
reset
how to read this tab
guitar tuner
Autoscroll
slow
fast
+/-
esc
set tempo
stop
Help us to improve Ultimate-Guitar.com Take our survey!
×
Author
LA PESTE - Better Off Dead (1978)

INTRO
e|-----------------|
B|-5---5---5---5---|
G|---9---9---9---9-|
D|-----------------|
A|-----------------|
E|-----------------|

RIFF 1 (4x)
e|---|
B|---|
G|-9-|
D|-9-|
A|-7-|
E|---|

RIFF 2
e|----------------------------------------------------------------------|
B|----------------------------------------------------------------------|
G|-9--9-9---11-11-11-11---7-7-7-7-7-7-7-7---9-9-9-9-9-9-9-9-9-9-9-9-9-9-|
D|-9--9-9---11-11-11-11---7-7-7-7-7-7-7-7---9-9-9-9-9-9-9-9-9-9-9-9-9-9-|
A|-7--7-7----9--9--9--9---5-5-5-5-5-5-5-5---7-7-7-7-7-7-7-7-7-7-7-7-7-7-|
E|----------------------------------------------------------------------|

RIFF 3
e|---------------|
B|-------------7-|
G|-------------7-|
A|-7-7-7-7-7---5-|
E|-5-5-5-5-5-----|

RIFF 4
e|----------------------------------------|
B|----------------------------------------|
G|-9--9-9---11-11-11-11---7-7-7-7-7-7-7-7-|
D|-9--9-9---11-11-11-11---7-7-7-7-7-7-7-7-|
A|-7--7-7----9--9--9--9---5-5-5-5-5-5-5-5-|
E|----------------------------------------|
Suggest correction
Give kudos to tab author, rate the tab!
1 2 3 4 5
comments
print report bad tab
guest
You may want to rate the tab now too:
select rating
Please do not post tabs as comments. Select "correction" instead!