Oops, an error
Loading. Please wait.

Descalzo Y Al Vacio Tab

1 view 1 this week
no commentswrite comment
1 2 3 4 5
3 more votes to show rating
add to favorites
launch autoscroll
font size
0
reset
how to read this tab
guitar tuner
Autoscroll
slow
fast
+/-
esc
set tempo
stop
Help us to improve Ultimate-Guitar.com Take our survey!
×
Author
Difficulty
[Intro]  estos dos acordes, se tocan 7 vueltas

e|-----1----------------------------0------------------------------------------|
B|-----1----------------------------0------------------------------------------|
G|-----2----------------------------1------------------------------------------|
D|-----3----x8----------------------2-------x10------------------x7------------|
A|-----3----------------------------2------------------------------------------|
E|-----1-----------3--3--3--1---0---0------------------------------------------|

e|------1--------------3---------------5---------------------------------------|
B|------1--------------3---------------5---------------------------------------|
G|------2--------------4---------------6---------------------------------------|
D|------3-----x8-------5-----x4--------7---------x10---------------------------|
A|------3--------------5---------------7---------------------------------------|
E|------1--------------3---------------5---------------------------------------|


[Verse] utilizamos (A) para cambiar a (F) cada 4 vueltas 

e|-------1---------------------------0---------------0-------------------------|
B|-------1---------------------------0---------------2-------------------------|
G|-------2---------------------------1---------------2-------------------------|
D|-------3-----x8--------------------2----x5---------2----x7------(Bis)--------|
A|-------3---------------------------2---------------0-------------------------|
E|-------1-----------3--3--3--1--0---0---------------0-------------------------|

La rítmica de la canción es lo esencial para los tiempos
Así que es recomendable escuchar la canción varias veces 
Att: Daniel campos lml



************************************

| x  Dead note

************************************
Suggest correction
Give kudos to tab author, rate the tab!
1 2 3 4 5
comments
print report bad tab
guest
You may want to rate the tab now too:
select rating
Wanna post a correction for this tab? Suggest correction