Oops, an error
Loading. Please wait.

Carne Para La Picadora tab

version 2
version 2

Whole song

99 views 1 this week
no commentswrite comment
1 2 3 4 5
3 more votes to show rating
add to favorites
×
Save as Personal and add changes to this tab that will be seen only by you. Learn more ›
×
You can save this tab as Personal to edit and correct it or add notes. All changes will be seen only by you. Learn more »
launch autoscroll
font size
0
reset
how to read this tab
guitar tuner
edit
Autoscroll
slow
fast
+/-
esc
set tempo
stop
primero va los acordes que haces y despues el la parte de la cancion
que la tocas:


carne pa la picadora!

E/------------------------------------------
B/------------------------------------------
G/--8-------------------5-------------------      x5
D/--8-8-8-8-8-3---------5-5-5-5-5-5---------
A/--6-6-6-6-6-3-3-3-3-3-3-3-3-3-3-5-5-5-5-5-
E/------------1-1-1-1-1-----------3-3-3-3-3-

HACE YA TIEMPO QUE SE ACABO
EL NECIO SUEÑO DE UNA VIDA FELIZ
NUNCA TENDREMOS UN SALVADOR
QUE NOS REGALE OTRA OPORTUNIDAD
DAME LO MEJOR QUE TENGO
QUE OLVIDAR TODAS MI PELLAS
Y ALGUN QUE OTRO MARRON SOLO
COLOCAO SE CALMA ESTE DOLOR QUE TANTO
AGOBIA MI CUERPO TERRENAL
(HASTA AQUI LOS ACORDES DE ARRIBA)
--------------------------------------------------------------------
E/--------------------
B/--------------------
G/--6-----------------         x3
D/--6-6-6-6-6-8-8-8-8-
A/--4-4-4-4-4-6-6-6-6-
E/--------------------

VIDA DE SUPERVIVIENTE
Y METERSE ALGO DECENTE
VIDA DE SUPERVIVIENTE
--------------------------------------------------------------------
E/-------------------
B/--------------------
G/----8---------------
D/----8-8-8-8-3-------         x1
A/----6-6-6-6-3-3-3-3-
E/------------1-1-1-1-

LA RUEDA SIGUE Y SE ACABO LA JUVENTUD
--------------------------------------------------------------------

E/----------------------------------------------4-3-4-3-----
B/--6--6-5-6-5-6-3-3-6-5-6-5-6-3-3-6-5-6-5-6-3-3-------3-6-5-
G/-----------------------------------------------------------  x2
D/-----------------------------------------------------------
A/-----------------------------------------------------------
E/-----------------------------------------------------------

---------------------------------------------------------------------

AHORA ME PONGO CON METADONA Y CUANDO PUEDO
DE TODO LO QUE HAY ERES MUY LIBRE SI QUIERES
CONFIAR SOLO UN AMIGO TE PUEDE TRAICIONAR
LA CULPABLE DE MI RUINA ES LA SOCIEDAD
QUE CUANDO MEJOR ESTOY SE ACABA EL MATERIAL

(SE TOCA IGUAL QUE LOS ACORDES DE ARRIBA)
--------------------------------------------------------------------

E/--------------------------
B/--------------------------
G/--------------------------
D/--9-9-9-9-9-9-9-9-9-7-----            x2
A/--7-7-7-7-7-7-7-7-7-5-7-5-
E/----------------------5-3-
      *....PM....*
(el palm mute se hace solo donde se indica)

alegria!

E/----------------------------------------------------------
B/----------------6-6----3-3--------------------6-6-----3-3-
G/---------------------------------------3/-----------------
D/-----------3/-------------------------3-------------------
A/--5-------3----------------5---------3--------------------
E/---5-5-3-3-------------------5-5-3-3----------------------

CARNE PA LA PICADORA Y QUE MAS DA
LA CULPABLE DE MI RUINA ES LA SOCIEDAD
QUE CUANDO MEJOR ESTOY SE ACABA EL MATERIAL.

            
            
Suggest correction
Creating personal tab
Creating personal tab
You can edit any tab online and save it as your Personal.

You can edit, replace or remove any tab part or add personal notes – all changes will be seen only by you.

Personal tabs can be accessed anytime from any device, even offline.
Learn more »
Give kudos to tab author, rate the tab!
1 2 3 4 5
comments
print report bad tab
guest
Wanna post a correction for this tab? Suggest correction