Oops, an error
Loading. Please wait.

Los 7 Enanitos Tab

297 views 3 this week
no commentswrite comment
1 2 3 4 5
3 more votes to show rating
add to favorites
launch autoscroll
font size
0
reset
how to read this tab
guitar tuner
Autoscroll
slow
fast
+/-
esc
set tempo
stop
Help us to improve Ultimate-Guitar.com Take our survey!
×
los 7 enanitos



la polla records



album: salve!



TRANSCRIBED BY RUDY GUZMAN



guzman_84@hotmail.com




                        x2                                      
e:-----------------------|
B:-----------------------|
G:-----------------------|
D:---5---5-------7---7---|
A:-5-3---3-7---7-5---5-5-|
E:-3-------5---5-------3-|


e:---------------------------------------------|
B:---------------------------------------------|
G:---------------------------------------------|
D:----5-5-5-5-5-------------7-7-7-7-7----------|
A:-5--3-3-3-3-3--7-7-7-7-7--5-5-5-5-5--5-5-5-5-|
E:-3-------------5-5-5-5-5-------------3-3-3-3-|


e:------------------------------------|
B:------------------------------------|
G:------------------------------------|
D:-5-5-5-5-5-------------7-7-7-7-7----|
A:-3-3-3-3-3--7-7-7-7-7--5-5-5-5-5--5-|
E:------------5-5-5-5-5-------------3-|

                        x2                                      
e:-----------------------|
B:-----------------------|
G:-----------------------|
D:---5---5-------7---7---|
A:-5-3---3-7---7-5---5-5-|
E:-3-------5---5-------3-|


e:---------------------------------------------|
B:---------------------------------------------|
G:---------------------------------------------|
D:----5-5-5-5-5-------------7-7-7-7-7----------|
A:-5--3-3-3-3-3--7-7-7-7-7--5-5-5-5-5--5-5-5-5-|
E:-3-------------5-5-5-5-5-------------3-3-3-3-|


e:------------------------------------|
B:------------------------------------|
G:------------------------------------|
D:-5-5-5-5-5-------------7-7-7-7-7----|
A:-3-3-3-3-3--7-7-7-7-7--5-5-5-5-5--5-|
E:------------5-5-5-5-5-------------3-|


 pm............................................................... x2
e:---------0----------------0---------------1----------------------|
B:-----------1----------------1--------3------3------------3-------|
G:-----0-------0--------2-------2----2---2------2------------0-----|
D:---2---2-------2----2---2--------0-------------------0-------0---|
A:-3----------------0--------------------------------2---2-------2-|
E:-------------------------------------------------3---------------|


 pm.............................. 
e:---------0----------------0--------------|
B:-----------1----------------1----3-----1-|
G:-----0-------0--------2-------2--2--0--0-|
D:---2---2-------2----2---2--------0--0--2-|
A:-3----------------0-----------------2--3-|
E:------------------------------------3----|

  gt2
e:------------------------------------------|
B:----------------6--6-5-5----------------1-|
G:-----5--------5-----------5-5-7-7--4-4--0-|
D:-5-7---5--5-7---------------------------2-|
A:----------------------------------------3-|
E:------------------------------------------|


hillo son mex

27/01/13
Suggest correction
Give kudos to tab author, rate the tab!
1 2 3 4 5
comments
print report bad tab
guest
You may want to rate the tab now too:
select rating
Wanna post a correction for this tab? Suggest correction